Maroon 5 - Misery Chords & Tabs

 

Misery Chords & Tabs

Maroon 5 Chords & Tabs

Version: 1 Type: Bass Tab

Misery Bass Tab

Intro
G|------------------|
D|------------------|
A|-33--22--33--222--|
E|------------------| x1

Verse 1
G|---5p-------4p--|
D|----------------|
A|-3--------2-----| x2
E|----------------|

Verse 2 
G|---5p--------4p--|
D|-----------------|
A|-3---------2-----| x1
E|--------12\------|

Verse 1
G|---5p-------4p--|
D|----------------|
A|-3--------2-----| x1
E|----------------|

Pre-Chorus
G|----------------|
D|----------------|
A|-333--222-------|
E|----------------| x1

Chorus 1 
G|---------------|------------------|
D|-----5-7-7-----|-------5-5-5x5----|
A|-7--7----------|-5--5-7-----------|
E|---------------|------------------|

G|-------------|------------------|
D|-----5-7-7-7-|-------5-5-5x55---|
A|-77---------|-5--5-7--------75-|
E|-------------|------------------| x2

Chorus 2 
G|-------------9h7---------------------------|
D|--------7777-----9-7---------5555-7h5------|
A|-7-7-10----------------5-5-7----------7-5--| x2
E|-------------------------------------------|

Post Chorus
G|----------4p-----|
D|-----------------|
A|-3r-----2----2---| x1
E|-----------------|
[ Tab from: https://www.guitartabs.cc/tabs/m/maroon_5/misery_btab.html ]
Verse 2 X4
G|---5p--------4p--|
D|-----------------|
A|-3---------2-----|
E|--------12\------|

Chorus 1 
G|---------------|------------------|
D|-----5-7-7-----|-------5-5-5x5----|
A|-7--7----------|-5--5-7-----------|
E|---------------|------------------|

G|-------------|------------------|
D|-----5-7-7-7-|-------5-5-5x55---|
A|-77---------|-5--5-7--------75-|
E|-------------|------------------| x2

Chorus 2 
G|-------------9h7---------------------------|
D|--------7777-----9-7---------5555-7h5------|
A|-7-7-10----------------5-5-7----------7-5--| x2
E|-------------------------------------------|

Bridge
G|-----4-|-------|-------|-------|
D|---4---|-----7-|-------|-------|
A|-2-----|---7---|-----4-|-------|
E|-------|-5-----|--2----|-3-3-3-|

G|-----4-|-------|-------|-----4-|
D|---4---|-----7-|-------|---4---|
A|-2-----|---7---|-3--3--|-2-----| x1
E|-------|-5-----|-------|-------|

REST for 8 bars

Chorus 2 (until the end)
G|-------------9h7--------------------------|
D|--------7777-----9-7--------5555-7h5------|
A|-7-7-10----------------5-5-7----------7-5-|
E|------------------------------------------|