Mark Bautista - Kahit May Mahal Ka Ng Iba Chords & Tabs

 

Kahit May Mahal Ka Ng Iba Chords & Tabs

Mark Bautista Chords & Tabs

Version: 1 Type: Chords

Kahit May Mahal Ka Ng Iba Chords

   
Beginner :))  this is my first tab

                 Kahit May Mahal Ka Ng Iba
                         Acoustic
Standard Tuning :)
CAPO First Fret

   G          A/G       Dsus2       D          Am7        D
--3-----   ----3---   ---3----   ---2----   --0-----   ---2----
--3-----   ----3---   ---3----   ---3----   --1-----   ---3----
--------   ----2---   ---2----   ---2----   --0-----   ---2----
--------   --------   ---0----   ---0----   --2-----   ---0----
--2-----   --------   --------   --------   --------   --------
--3-----   ----3---   --------   --------   --------   --------

   Cm         Bm         Em         E7         C
--3-----   --2-----   --------   --------   --1-----|
--4-----   --3-----   --------   --------   --0-----|
--5-----   --4-----   --0-----   --1-----   --2-----|
--5-----   --4-----   --2-----   --0-----   --3-----|
--3-----   --2-----   --2-----   --2-----   --------|
--------   --------   --------   --------   --------|


[INTRO]

G A/G Dsus2 D Am7 D

VERSE I
G         D
  Kahit inibig mo sya
Am7            Cm
  ay mahal pa rin kita
G          D
  Kahit nilimot mo pa
Am7                    Cm
  ikaw pa rin sa aking alaala


REFRAIN
[ Tab from: https://www.guitartabs.cc/tabs/m/mark_bautista/kahit_may_mahal_ka_ng_iba_crd.html ]
     Bm    Em          E7
  Ewan ko bakit mahal kita
        Am7   Cm
  Tunay na ikaw lang talaga
       G          A/G          Dsus2 D Am7 D
  ang hinahanap tinatawag ng Puso....


CHORUS

G                D
  Iibigin koy ikaw pa rin sinta
Am7                    Cm
  maghihintay ako yan ay tandaan mo
G                     D
  tunay na hindi pa rin magbabago
Am7                 Cm
  aking nadarama itoy para sayo
C          D
  Kahit nasasaktan pa
Bm                  E7
  pagibig koy sadyang sayo sinta
Am7    D pause
  Kahit may mahal ka ng iba


  Kahit pusoy nagiisa
  di ako hahanap ng iba
  Kahit nangungulila pa
  ay di pa rin iibig sa iba

  Ewan ko bakit mahal kita
  Tunay na ikaw lang talaga
  ang hinahanap tinatawag ng Puso.....

REPEAT chorus

           ooohhooohh hehehe kasama yan!!
G D Am7 Cm C D Bm E7 Am7 D

REPEAT chorus

[OUTRO]

G D Am7 Cm  G....




   G D Am7 Cm  2x

   Bm Em E7 Am7 Cm G A/G Dsus2 D Am7 D


   G D Am7 Cm 2x

   C D Bm E7 Am7 D pause