Marilyn Manson - Heart-shaped Glasses Chords & Tabs

 

Heart-shaped Glasses Chords & Tabs

Marilyn Manson Chords & Tabs

Version: 2 Type: Bass Tab

Heart-shaped Glasses Bass Tab

G|-------------------------------------------------------------|
D|----7-7------7------7-7------7----3---3--33-33--33-2-220-----|
A|--0-------00------0-------00------------------------------3-| 4x
E|-------------------------------------------------------------|


G|------------------------------|
D|-----7-7---------------7-7----|
A|--0-------00---------0-----00-| x10
E|------------------------------|


G|-------------------------------------------------------------|
D|---------------------7-7----------7-7------------------------|
A|-3-3-3-3-5-5-5-5---0------00----0------00----3-3-3-3-5-5-5-5-| x1
E|-------------------------------------------------------------|

G|-------------------------------|
D|-------------------------------|
A|-7-7-7-7-7-7-7-7-7-7-7-7-7---7-| 1x
E|-------------------------------|


G|-------------------------------------------------------------|
D|----7-7------7------7-7------7----3---3--33-33--33-3-220-----|
A|--0-------00------0-------00------------------------------3-| 4x
E|-------------------------------------------------------------|

[ Tab from: https://www.guitartabs.cc/tabs/m/marilyn_manson/heart_shaped_glasses_btab_ver_2.html ]
G|------------------------------|
D|-----7-7---------------7-7----|
A|--0-------00---------0-----00-| x10
E|------------------------------|


G|-------------------------------------------------------------|
D|---------------------7-7----------7-7------------------------|
A|-3-3-3-3-5-5-5-5---0------00----0------00----3-3-3-3-5-5-5-5-| x1
E|-------------------------------------------------------------|


G|-------------------------------|
D|-------------------------------|
A|-7-7-7-7-7-7-7-7-7-7-7-7-7---7-| 1x
E|-------------------------------|


G|---------------------------------------------------------------|
D|----7-7-----7-----7-7----7-----3---3--33--33--33--2-220--------|
A|-0-----00-----0------00----------------------------------3-----| 4x
E|---------------------------------------------------------------|

G|-----------------------------------7-----------7---9---7--------|
D|-7---7---7---9---10---7---7---10-------9---9--------------10---9|
A|----------------------------------------------------------------| x2
E|----------------------------------------------------------------|

G|---------------------------------------------------------------|
D|----7-7-----7-----7-7----7-----3---3--33--33--33--2-220--------|
A|-0-----00-----0------00----------------------------------3-----| 4x
E|---------------------------------------------------------------|