Marie-mai - Mentir Chords & Tabs

 

Mentir Chords & Tabs

Marie-mai Chords & Tabs

Version: 1 Type: Tab

Mentir Tab

-----------------------------------------------------------------
Mentir - Marie-Mai
-----------------------------------------------------------------
Tabbed by: Julie Deshaies
Email: julee100@hotmail.com


Tuning: EBGDAE

intro ...PM..... 10x
e|---------------------------------------------------------------|
B|---------------------------------------------------------------|
G|---------------------------------------------------------------|
D|-----------------------------------------7-7-7-7--6-6--9-9-----|
A|---------7-7-7-7-8-8-8-8-5-5-5-5-7-7-7-7-----------------------|
E|-5-5-5-5-------------------------------------------------------|

verse 0:33
e|---------------------------------------------------------------|
B|---------------------------------------------------------------|
G|---------------------------------------------------------------|
D|-----------------------------------------7-7-7-7--6-6--9-9-----|
A|---------7-7-7-7-8-8-8-8-5-5-5-5-7-7-7-7-----------------------|
E|-5-5-5-5-------------------------------------------------------|
[ Tab from: https://www.guitartabs.cc/tabs/m/marie_mai/mentir_tab.html ]
e|---------------------------------------------------------------|
B|---------------------------------------------------------------|
G|---------------------------------------------------------------|
D|---------------------------------------------------------------|
A|-------7-7-7-8-8-8-7-7-7-------5-5-5-7-7-7-5-5-5---------------|
E|-8-8-8-------------------7-7-7---------------------------------|

0:53
e|--0------------------------------------------------------------|
B|--3------------------------------------------------------------|
G|--1------------------------------------------------------------|
D|--2-x5---------------------------------------------------------|
A|--2------------------------------------------------------------|
E|--0------------------------------------------------------------|

Chorus 
e|---------------------------------------------------------------|
B|---------------------------------------------------------------|
G|-------------------7-7-7-7--4-4--------------------------------|
D|-7-7-7-7--3-3-3-3--7-7-7-7--4-4--5-5---------------------------|
A|-7-7-7-7--3-3-3-3--5-5-5-5--2-2--5-5---------------------------|
E|-5-5-5-5--1-1-1-1----------------3-3---------------------------|

Je nai pas la partie acoustique.

Sil y a des erreurs, communiquez avec moi.