Marianas Trench - All To Myself Chords & Tabs

 

All To Myself Chords & Tabs

Marianas Trench Chords & Tabs

Version: 1 Type: Tab

All To Myself Tab

Band: Marianas Trench
Song: All To Myself
Album: Masterpiece Theatre

Guitar 1 - Rhythm (Josh Ramsay)
Guitar 2 - Lead (Matt Webb)

----Rhythm Guitar----
Verse 1 (00:01)

E|---------|---------|---------|-------------------|
B|---------|---------|---------|-------------------|
G|---------|---------|---------|-------------------|
D|--4--4---|--4--4---|--8--8---|--9--9---11--11----|  (2x)
A|--4--4---|--4--4---|--8--8---|--9--9---11--11----|
E|--2--2---|--2--2---|--6--6---|--7--7----9---9----|

(00:16)

E|---------|---------|---------|-------------------|
B|---------|---------|---------|-------------------|
B|---------|---------|---------|-------------------|
D|--4--4---|--4--4---|--8--8---|--9--9---11--11----|
A|--4--4---|--4--4---|--8--8---|--9--9---11--11----|
E|--2--2---|--2--2---|--6--6---|--7--7----9---9----|

E|---------|---------|---------------------|--------|
B|---------|---------|---------------------|--------|
G|---------|---------|---------------------|--------|
D|--4--4---|--4--4---|----9--9---11--11----|--4--4--|
A|--4--4---|--4--4---|----9--9---11--11----|--4--4--|
E|--2--2---|--2--2---|----7--7----9---9----|--2--2--|

Pre-chorus  (00:30)

E|---------------|---------------|---------------|-------------------|
B|---------------|---------------|---------------|-------------------|
G|---------------|---------------|---------------|-------------------|
D|--4--4--4--4---|--4--4--4--4---|--8--8--8--8---|--11--11--11--11---|
A|--4--4--4--4---|--4--4--4--4---|--8--8--8--8---|--11--11--11--11---|
E|--2--2--2--2---|--2--2--2--2---|--6--6--6--6---|---9---9---9---9---|

E|---------------|---------------|---------------|---------------|
B|---------------|---------------|---------------|---------------|
G|---------------|---------------|---------------|---------------|
D|--4--4--4--4---|--4--4--4--4---|--8--8--8--8---|--9--9--9--9---|
A|--4--4--4--4---|--4--4--4--4---|--8--8--8--8---|--9--9--9--9---|
E|--2--2--2--2---|--2--2--2--2---|--6--6--6--6---|--7--7--7--7---|

Chorus (00:46)

E|---------------|---------------|---------------|---------------|
B|---------------|---------------|---------------|---------------|
G|---------------|---------------|---------------|---------------|
D|--4--4--4--4---|--4--4--4--4---|--8--8--8--8---|--9--9--9--9---|
A|--4--4--4--4---|--4--4--4--4---|--8--8--8--8---|--9--9--9--9---|
E|--2--2--2--2---|--2--2--2--2---|--6--6--6--6---|--7--7--7--7---|

E|---------------|---------------|---------------|---------------|
B|---------------|---------------|---------------|---------------|
G|---------------|---------------|---------------|---------------|
D|--4--4--4--4---|--4--4--4--4---|--8--8--8--8---|--9--9--9--9---|
A|--4--4--4--4---|--4--4--4--4---|--8--8--8--8---|--9--9--9--9---|
E|--2--2--2--2---|--2--2--2--2---|--6--6--6--6---|--7--7--7--7---|

Verse 2 (1:01)

E|----------------| E|-------------|-------------|-----------------|
B|----------------| B|-------------|-------------|-----------------|
G|----------------| G|-------------|-------------|-----------------|
D|--4-4-4--4--4---| D|--4--4--4--4-|-4--4--4--4--|--9--9--11--11---| (4x)
A|--4-4-4--4--4---| A|--4--4--4--4-|-4--4--4--4--|--9--9--11--11---|
E|--2-2-2--2--2---| E|--2--2--2--2-|-2--2--2--2--|--7--7---9---9---|

Pre-chorus  (01:32)

E|---------------|---------------|---------------|-------------------|
B|---------------|---------------|---------------|-------------------|
G|---------------|---------------|---------------|-------------------|
D|--4--4--4--4---|--4--4--4--4---|--8--8--8--8---|--11--11--11--11---|
A|--4--4--4--4---|--4--4--4--4---|--8--8--8--8---|--11--11--11--11---|
E|--2--2--2--2---|--2--2--2--2---|--6--6--6--6---|---9---9---9---9---|

E|---------------|---------------|---------------|---------------|
B|---------------|---------------|---------------|---------------|
G|---------------|---------------|---------------|---------------|
D|--4--4--4--4---|--4--4--4--4---|--8--8--8--8---|--9--9--9--9---|
A|--4--4--4--4---|--4--4--4--4---|--8--8--8--8---|--9--9--9--9---|
E|--2--2--2--2---|--2--2--2--2---|--6--6--6--6---|--7--7--7--7---|

Chorus (01:47)

E|---------------|---------------|---------------|---------------|
B|---------------|---------------|---------------|---------------|
G|---------------|---------------|---------------|---------------|
D|--4--4--4--4---|--4--4--4--4---|--8--8--8--8---|--9--9--9--9---|
A|--4--4--4--4---|--4--4--4--4---|--8--8--8--8---|--9--9--9--9---|
E|--2--2--2--2---|--2--2--2--2---|--6--6--6--6---|--7--7--7--7---|

E|---------------|---------------|---------------|---------------|
B|---------------|---------------|---------------|---------------|
G|---------------|---------------|---------------|---------------|
D|--4--4--4--4---|--4--4--4--4---|--8--8--8--8---|--9--9--9--9---|
A|--4--4--4--4---|--4--4--4--4---|--8--8--8--8---|--9--9--9--9---|
E|--2--2--2--2---|--2--2--2--2---|--6--6--6--6---|--7--7-7--7---|

E|---------|---------|---------|------|
B|---------|---------|---------|------|
G|---------|---------|---------|------|
D|--4--4---|--4--4---|--4--4---|--9---|
A|--4--4---|--4--4---|--4--4---|--9---|
E|--2--2---|--2--2---|--2--2---|--7---|

Solo (02:10)
E|---------|---------|---------|------|
B|---------|---------|---------|------|
G|---------|---------|---------|------|
D|--4--4---|--4--4---|--4--4---|--9---| (2x)
A|--4--4---|--4--4---|--4--4---|--9---|
E|--2--2---|--2--2---|--2--2---|--7---|

(02:18)

E|---------------|---------------|---------------|-------------------|
B|---------------|---------------|---------------|-------------------|
G|---------------|---------------|---------------|-------------------|
D|--4--4--4--4---|--4--4--4--4---|--8--8--8--8---|--11--11--11--11---|
A|--4--4--4--4---|--4--4--4--4---|--8--8--8--8---|--11--11--11--11---|
E|--2--2--2--2---|--2--2--2--2---|--6--6--6--6---|---9---9---9---9---|

E|---------------|---------------|---------------|---------------|
B|---------------|---------------|---------------|---------------|
G|---------------|---------------|---------------|---------------|
D|--4--4--4--4---|--4--4--4--4---|--8--8--8--8---|--9--9--9--9---|
A|--4--4--4--4---|--4--4--4--4---|--8--8--8--8---|--9--9--9--9---|
E|--2-2--2--2---|--2--2--2--2---|--6--6--6--6---|--7--7--7--7---|

Chorus  (02:33)

E|---------------|---------------|---------------|---------------|
B|---------------|---------------|---------------|---------------|
G|---------------|---------------|---------------|---------------|
D|--4--4--4--4---|--4--4--4--4---|--8--8--8--8---|--9--9--9--9---|
A|--4--4--4--4---|--4--4--4--4---|--8--8--8--8---|--9--9--9--9---|
E|--2--2--2--2---|--2--2--2--2---|--6--6--6--6---|--7--7--7--7---| 

E|---------------|---------------|---------------|---------------|
B|---------------|---------------|---------------|---------------|
G|---------------|---------------|---------------|---------------|
D|--4--4--4--4---|--4--4--4--4---|--8--8--8--8---|--9--9--9--9---|
A|--4--4--4--4---|--4--4--4--4---|--8--8--8--8---|--9--9--9--9---|
E|--2--2--2--2---|--2--2--2--2---|--6--6--6--6---|--7--7--7--7---|
[ Tab from: https://www.guitartabs.cc/tabs/m/marianas_trench/all_to_myself_tab.html ]
E|---------------|---------------|---------------|---------------|
B|---------------|---------------|---------------|---------------|
G|---------------|---------------|---------------|---------------|
D|--4--4--4--4---|--4--4--4--4---|--8--8--8--8---|--9--9--9--9---|
A|--4--4--4--4---|--4--4--4--4---|--8--8--8--8---|--9--9--9--9---|
E|--2--2--2--2---|--2--2--2--2---|--6--6--6--6---|--7--7--7--7---|
 

E|---------------|---------------|---------------|---------------|
B|---------------|---------------|---------------|---------------|
G|---------------|---------------|---------------|---------------|
D|--4--4--4--4---|--4--4--4--4---|--8--8--8--8---|--9--9--9--9---|
A|--4--4--4--4---|--4--4--4--4---|--8--8--8--8---|--9--9--9--9---|
E|--2--2--2--2---|--2--2--2--2---|--6--6--6-6---|--7--7--7--7---|

E|---------|---------|---------|
B|---------|---------|---------|
G|---------|---------|---------|
D|--4--4---|--4--4---|--4--4---|
A|--4--4---|--4--4---|--4--4---|
E|--2--2---|--2--2---|--2--2---|



----Lead Guitar----

Verse 1 (00:16)
E|--2--2--2--2---|--2--2--2--2---|--6--6--6--6---|--7--7--7--7---|
B|--2--2--2--2---|--2--2--2--2---|--6--6--6--6---|--7--7--7--7---|
G|--3--3--3--3---|--3--3--3--3---|--6--6--6--6---|--8--8--8--8---|
D|--4--4--4--4---|--4--4--4--4---|--8--8--8--8---|--9--9--9--9---|
A|---------------|---------------|---------------|---------------|
E|---------------|---------------|---------------|---------------|

E|--2--2--2--2---|--2--2--2--2---|--7--7--9--9---|--2--2--2--2----|
B|--2--2--2--2---|--2--2--2--2---|--7--7--9--9---|--2--2--2--2----|
G|--3--3--3--3---|--3--3--3--3---|--8--8--10-10--|--3--3--3--3----|
D|--4--4--4--4---|--4--4--4--4---|--9--9--11-11--|--4--4--4--4----|
A|---------------|---------------|---------------|----------------|
E|---------------|---------------|---------------|----------------|

Pre-chorus (00:30)

E|--2--2--2--2---|--2--2--2--2---|--6--6--6--6---|--9---9---9---9----|
B|--2--2--2--2---|--2--2--2--2---|--6--6--6--6---|--9---9---9---9----|
G|--3--3--3--3---|--3--3--3--3---|--6--6--6--6---|--10--10--10--10---|
D|--4--4--4--4---|--4--4--4--4---|--8--8--8--8---|--11--11--11--11---|
A|---------------|---------------|---------------|-------------------|
E|---------------|---------------|---------------|-------------------|

E|--2--2--2--2---|--2--2--2--2---|--6--6--6--6---|--7--7--7--7---|
B|--2--2--2--2---|--2--2--2--2---|--6--6--6--6---|--7--7--7--7---|
G|--3--3--3--3---|--3--3--3--3---|--6--6--6--6---|--8--8--8--8---|
D|--4--4--4--4---|--4--4--4--4---|--8--8--8--8---|--9--9--9--9---|
A|---------------|---------------|---------------|---------------|
E|---------------|---------------|---------------|---------------|

Chorus (00:46)

E|--2--2--2--2---|--2--2--2--2---|--6--6--6--6---|--9---9---9---9----|
B|--2--2--2--2---|--2--2--2--2---|--6--6--6--6---|--9---9---9---9----|
G|--3--3--3--3---|--3--3--3--3---|--6--6--6--6---|--10--10--10--10---|
D|--4--4--4--4---|--4--4--4--4---|--8--8--8--8---|--11--11--11--11---|
A|---------------|---------------|---------------|-------------------|
E|---------------|---------------|---------------|-------------------|

E|--2--2--2--2---|--2--2--2--2---|--6--6--6--6---|--7--7--7--7---|
B|--2--2--2--2---|--2--2--2--2---|--6--6--6--6---|--7--7--7--7---|
G|--3--3--3--3---|--3--3--3--3---|--6--6--6--6---|--8--8--8--8---|
D|--4--4--4--4---|--4--4--4--4---|--8--8--8--8---|--9--9--9--9---|
A|---------------|---------------|---------------|---------------|
E|---------------|---------------|---------------|---------------|

Verse 2

E|---------------|
B|---------------|
G|---------------|
D|---------------|
A|---------------|
E|---------------|

Pre-chorus (01:32)

E|--2--2--2--2---|--2--2--2--2---|--6--6--6--6---|--9---9---9---9----|
B|--2--2--2--2---|--2--2--2--2---|--6--6--6--6---|--9---9---9---9----|
G|--3--3--3--3---|--3--3--3--3---|--6--6--6--6---|--10--10--10--10---|
D|--4--4--4--4---|--4--4--4--4---|--8--8--8--8---|--11--11--11--11---|
A|---------------|---------------|---------------|-------------------|
E|---------------|---------------|---------------|-------------------|

E|--2--2--2--2---|--2--2--2--2---|--6--6--6--6---|--7--7--7--7---|
B|--2--2--2--2---|--2--2--2--2---|--6--6--6--6---|--7--7--7--7---|
G|--3--3--3--3---|--3--3--3--3---|--6--6--6--6---|--8--8--8--8---|
D|--4--4--4--4---|--4--4--4--4---|--8--8--8--8---|--9--9--9--9---|
A|---------------|---------------|---------------|---------------|
E|---------------|---------------|---------------|---------------|

Chorus (01:47)

E|--2--2--2--2---|--2--2--2--2---|--6--6--6--6---|--9---9---9---9----|
B|--2--2--2--2---|--2--2--2--2---|--6--6--6--6---|--9---9---9---9----|
G|--3--3--3--3---|--3--3--3--3---|--6--6--6--6---|--10--10--10--10---|
D|--4--4--4--4---|--4--4--4--4---|--8--8--8--8---|--11--11--11--11---|
A|---------------|---------------|---------------|-------------------|
E|---------------|---------------|---------------|-------------------|

E|--2--2--2--2---|--2--2--2--2---|--6--6--6--6---|--7--7--7--7---|
B|--2--2--2--2---|--2--2--2--2---|--6--6--6--6---|--7--7--7--7---|
G|--3--3--3--3---|--3--3--3--3---|--6--6--6--6---|--8--8--8--8---|
D|--4--4--4--4---|--4--4--4--4---|--8--8--8--8---|--9--9--9--9---|
A|---------------|---------------|---------------|---------------|
E|---------------|---------------|---------------|---------------|

Solo (02:10)
                         
E|--3-/-14--14-------|------14--------|
B|--------------11b--|--11------11b---|
G|-------------------|----------------|
D|-------------------|----------------|
A|-------------------|----------------|
E|-------------------|----------------|

E|-------14---------|-------14---18b-18---14---|
B|--11--------11b---|--11----------------------|
G|------------------|--------------------------|
D|------------------|--------------------------|
A|------------------|--------------------------|
E|------------------|--------------------------|

Chorus (02:33)

E|--2--2--2--2---|--2--2--2--2---|--6--6--6--6---|--9---9---9---9----|
B|--2--2--2--2---|--2--2--2--2---|--6--6--6--6---|--9---9---9---9----|
G|--3--3--3--3---|--3--3--3--3---|--6--6--6--6---|--10--10--10--10---|
D|--4--4--4--4---|--4--4--4--4---|--8--8--8--8---|--11--11--11--11---|
A|---------------|---------------|---------------|-------------------|
E|---------------|---------------|---------------|-------------------|

E|--2--2--2--2---|--2--2--2--2---|--6--6--6--6---|--7--7--7--7---|
B|--2--2--2--2---|--2--2--2--2---|--6--6--6--6---|--7--7--7--7---|
G|--3--3--3--3---|--3--3--3--3---|--6--6--6--6---|--8--8--8--8---|
D|--4--4--4--4---|--4--4--4--4---|--8--8--8--8---|--9--9--9--9---|
A|---------------|---------------|---------------|---------------|
E|---------------|---------------|---------------|---------------|

E|--2--2--2--2---|--2--2--2--2---|--6--6--6--6---|--9---9---9---9----|
B|--2--2--2--2---|--2--2--2--2---|--6--6--6--6---|--9---9---9---9----|
G|--3--3--3--3---|--3--3--3--3---|--6--6--6--6---|--10--10--10--10---|
D|--4--4--4--4---|--4--4--4--4---|--8--8--8--8---|--11--11--11--11---|
A|---------------|---------------|---------------|-------------------|
E|---------------|---------------|---------------|-------------------|

E|--2--2--2--2---|--2--2--2--2---|--6--6--6--6---|--7--7--7--7---|
B|--2--2--2--2---|--2--2--2--2---|--6--6--6--6---|--7--7--7--7---|
G|--3--3--3--3---|--3--3--3--3---|--6--6--6--6---|--8--8--8--8---|
D|--4--4--4--4---|--4--4--4--4---|--8--8--8--8---|--9--9--9--9---|
A|---------------|---------------|---------------|---------------|
E|---------------|---------------|---------------|---------------|