Manic Street Preachers - Autumnsong Chords & Tabs

 

Autumnsong Chords & Tabs

Manic Street Preachers Chords & Tabs

Version: 2 Type: Tab

Autumnsong Tab

   
Manic Street Preachers - Autumnsong
Send Away The Tigers - 2007

Edit: Corrected solo

Main Riff

E||----------14~----------14~--12----------|
B||-------------------------------15-12----|
G||------14-----------14----------------14-|
D||--12------------12----------------------|
A||----------------------------------------|
E||----------------------------------------|

*Guitar 2 lets D chord ring throughout main riff

Verse

D                         F#m
Wear your eyes as dark as night

G                    D
Paint your face with what you like

Bm                        E
Wear your love like it is made of hate
        
        D                    A
Born to destroy, and born to create

Pre Chorus - Same chords as verse

Now baby, whatíve you done to your hair
Is it just the same time of year
When you think that you donít really care
Oh baby, what have you done to your hair

A
Done to your hair (4x)

Chorus

D                     Em
So when you hear this Autumnsong

F#m                               G
Clear your heads and get ready to run

D                     Em
So when you hear this Autumnsong

F#m                                G
Remember the best times are yet to come

Main riff
Verse
Pre Chorus
Chorus

Bridge

A                    B
So wear your hair in bunches

B-7/--------|
G----9-7-6~-|

A               B
And your jacket loose

B-7/--------|
G----9-7-6~-|

G                     B
So when you hear this Autumnsong

------------------------------|------------------------------|
------------------------------|------------------------------|
--12~----12~----12~----12~----|--11~----11~----11~----11~----|
------------------------------|------------------------------|
------------------------------|------------------------------|
------------------------------|------------------------------|

E                                 A
Clear your heads and get ready to run

--------------------------|---------------------|
--------------------------|---------------------|
--9~----9~----9~----------|---------------------|
--------------------------|---------------------|
--------------------7--9--|--/12----------------|
--------------------------|---------------------|
[ Tab from: https://www.guitartabs.cc/tabs/m/manic_street_preachers/autumnsong_tab_ver_2.html ]
Solo
 
----------------------------|-----------------|
----------------------------|-----------------|
--7~------14--14--11--9--7--|--6--14----/11\--|
----------------------------|-----------------|
--5-------12--12---9--7--5--|--4--12-----/9\--|
----------------------------|-----------------|

-------------------------------|
-------------------------------|
--12------16--16--16--16S--19--|
-------------------------------|
--10------14--14--14--14S--17--|
-------------------------------|
   
-----------------|
-----------------|
--16--14----14\--|
-----------------|
--14--12----12\--|
-----------------|

-------7-----------------------------------------|
---------10-10h-12p-10----10---------------------|
--9b11-----------------11----11S-9-7---7h-9------|
-------------------------------------9------7h-9-|
-------------------------------------------------|
-------------------------------------------------|
 
-------------------------------------|
-------------------------------------|
-------------------------------------|
--9~----9\~----------------7-7-------|
------------------5-5-7h-9-----7h-9S-|
-------------5h-7--------------------|
  
------------------------------|
-----------------------7-7-7--|
--------------7-7-7h-9--------|
---------7h-9-----------------|
--5---------------------------|
------------------------------|

-------------------------------------------------|
--10b12r10p8-7---7-10b12r10p8-7---7-10b12r10p8-7-|
---------------9----------------9----------------|
-------------------------------------------------|
-------------------------------------------------|
-------------------------------------------------|
     
---------------------------------|
-----7-10b12r10p8-7---7-8-10-10--|
--9~----------------9------------|
---------------------------------|
---------------------------------|
---------------------------------|

----------------------------/12-12-12-12--/17-17-17-17-|
---------------/14-14-14-14----------------------------|
--/14-14-14-14---------------/9--9--9--9S--14-14-14-14-|
---------------/11-11-11-11----------------------------|
--/12-12-12-12-----------------------------------------|
-------------------------------------------------------|
 
----------------------------/12-12-12-12S-15-15-15-15S-|
---------------/14-14-14-14----------------------------|
--/14-14-14-14---------------/9--9--9--9S-12-12-12-12S-|
---------------/11-11-11-11----------------------------|
--/12-12-12-12-----------------------------------------|
-------------------------------------------------------|
          
--17~----------------|
---------------------|
--14-----------------| *Let ring over chorus
---------------------|
---------------------|
---------------------|

*Guitar 2 plays verse chords under solo*

Chorus
Main riff