Mana - Bendita Ti Luz Chords & Tabs

 

Bendita Ti Luz Chords & Tabs

Mana Chords & Tabs

Version: 1 Type: Chords

Bendita Ti Luz Chords

Es una buena cancion de mana con juan luis guerra y es de aprender bien facil aqui les mando
el intro y el verso... el coro lleva los mismos acordes que el verso o al menos eso creo
diviertanse =).

INTRO:

|------------------------------------------------------|
|------3---------3---------3-----------1--------3------|
|----0---0-----2---2---------0---------0--------5------|
|----------------------------------2-------4-----------|
|-----------------------2-------3--------5-------------|
|-3----------2--------0--------------------------------|

|------------------------------------------------------|
|------3------------3--------3--3---------1--------3---|
|----0---0--------2-------------0---------0--------5---|X 2
|------------------------------------2---------4-------|
|--------------0---------2--------3----------5---------|
|-3----------2--------0--------------------------------|

VERSO
[ Tab from: https://www.guitartabs.cc/tabs/m/mana/bendita_ti_luz_crd.html ]
|------------------------------------------------------|
|-------3----------3---------3-----------1--------3----|
|-----0----------2---2---------0---------0--------5----|
|----------------------------------2-------4-----------|
|---2----------0----------2-------3--------5-----------|
|-3----------2----------0------------------------------|

|--------------------------------0---------------------|
|-------3----------3---------3-----3-----1-------3-----|
|-----0----------2---2---------0---------0--------5----|
|--------------------------------------2-------4-------|X2
|---2----------0----------2----------3-------5---------|
|-3----------2----------0------------------------------|


DESPUES SIGUE UN CIRCULO DE ACORDES QUE CREO Q VA EN TODA LA CANCION
el coro lleva los mismos que el verso

  SOL	*     MIm    DO      *
|--3----0-----0------0-------0---|
|--3----3-----0------1-------3---|
|--0----2-----0------0-------0---|<-----agregar meique en el 5to traste
|--0----0-----2------2-------4---|
|--0----0-----2------3-------5---|
|--3----2-----0------------------|


*no se como se llama


Esta es mi primera trascripcion la hice bien rapido... si alguien tiene mejoras 
que seran bienvenidas
ramb_21@hotmail.com