Magazine - Shot By Both Sides Chords & Tabs

 

Shot By Both Sides Chords & Tabs

Magazine Chords & Tabs

Version: 1 Type: Tab

Shot By Both Sides Tab

Shot by both sides solo
Magazine
/ = Slide
 = Bend up
_ = Slide down string


|11-11--------/14-14-13-11-9--------------|
|11-11-9----9------------------------------|
|--------11--------------------------------|
|------------------------------------------|
|------------------------------------------|
|------------------------------------------|

|------------------------------------------|
|-------------11-8-11-11/-13-11------------|
|-------11---------------------------------|
|----12----12------------------------------|
|-13---------------------------------------|
|------------------------------------------|
[ Tab from: https://www.guitartabs.cc/tabs/m/magazine/shot_by_both_sides_tab.html ]
|--------------------------------11--------|
|-14-------------14-13-12-11-10-----------|
|-----13-----13--------------------------|
|---------11------------------------------|
|------------------------------------------|
|------------------------------------------|

|-9/-11-11-13-14-13-11-14-13-11-10-11-10---|
|------------------------------------------|
|------------------------------------------|
|------------------------------------------|
|------------------------------------------|
|------------------------------------------|

|-11-10-11-10-11-10-11/-14-13--------------|
|-----------------------------11_----------|
|------------------------------------------|
|------------------------------------------|
|------------------------------------------|
|------------------------------------------|