Madness - House Of Fun Chords & Tabs

 

House Of Fun Chords & Tabs

Madness Chords & Tabs

Version: 2 Type: Bass Tab

House Of Fun Bass Tab

Intro
G|----221212----------|
D|-------------665656-|Repeat 3Xs
A|--5--------3--------|
E|--------------------|

G|-------------------|
D|---443434---332323-|
A|-2--------1--------|
E|-------------------|

Verse 
G|----221212----------|
D|-------------665656-|Repeat 2X
A|--5--------3--------|
E|--------------------|

G|----554545---443434-|
D|--3--------2--------|
A|--------------------|Repeat 2X
E|--------------------|

Interlude
G|----221212----------|
D|-------------665656-|1X
A|--5--------3--------|
E|--------------------|

Verse

Chorus
G|-----------------------------------------------|
D|--22----22----22----22----44----44----22-------|
A|-----33----22----33----33----55----44----33-22-|
E|-----------------------------------------------|
[ Tab from: https://www.guitartabs.cc/tabs/m/madness/house_of_fun_btab_ver_2.html ]
Interlude 2X
G|----221212----------|
D|-------------665656-|
A|--5--------3--------|
E|--------------------|

Verse

Chorus

Interlude Intro 2X

Middle 8
G|--2222-----2222----44444--00000--0000--222--|
D|-------111-----444--------------------------|
A|--------------------------------------------|
E|--------------------------------------------|

Last Verse
G|----221212----------|
D|-------------665656-|Repeat 4X
A|--5--------3--------|
E|--------------------|

G|----554545---443434-|
D|--3--------2--------|
A|--------------------|Repeat 1X
E|--------------------|

Last Chorus
G|-----------------------------------------|
D|22--22--22--22--44--44--22--22--22--22---|
A|--33--22--33--22-55--44--33--22--33--22-|
E|-----------------------------------------|

G|--------------------------------|
D|22--22--22--22--44--44-22------|
A|--33--22--33--22-55-44-3-5---|
E|------------------------------3-|