Madness - Baggy Trousers Chords & Tabs

 

Baggy Trousers Chords & Tabs

Madness Chords & Tabs

Version: 6 Type: Bass Tab

Baggy Trousers Bass Tab

Baggey Trousers
Intro
G|-----------------------|
D|-----------------------|
A|--2-1-----33333--2-1---|
E|------4-1------------4-|

Verse
G|--------------------------------|
D|-------------------33333--------|
A|---33333---66666-1-------2-1----|
E|-1-------4-------------------4--|

Chorus
G|-------232323-----------------232323---------------|
D|------------------232323---------------------------|
A|--1-1--------------------1-1----------3333333333--|
E|--------------1-1----------------------------------|

Run Up
G|----------|
D|----------|
A|--3---3-4-|
E|----------|
[ Tab from: https://www.guitartabs.cc/tabs/m/madness/baggy_trousers_btab_ver_6.html ]
Saxaphone Solo
G|----------------------|
D|----------------------|
A|--555--777--555--222--|
E|----------------------|

Run Down
G|-----------|
D|-----------|
A|--3-2-1----|
E|--------4--|

End
G|--------------------------------------------------|
D|--------------------------------------------------|Repeat 3X
A|------------------------------------------2-1-0---|
E|-1111111111111-4444444444444-66666666666--------4-|

G|--------------------------------------------------|
D|--------------------------------------------------|4th Time
A|--------------------------------------------------|
E|-1111111111111-4444444444444-66666666666----------|