M People - Search For The Hero Chords & Tabs

 

Search For The Hero Chords & Tabs

M People Chords & Tabs

Version: 1 Type: Bass Tab

Search For The Hero Bass Tab

   
-------------------------------------------------------------------------------
			     Search for the Hero  M People
-------------------------------------------------------------------------------

Tabbed By : Phil Starr
e-mail: 

Tuning:EADG

Very simple riff repeated throughout the song with pauses and a couple of 
shifts up the neck which I have written as riff 2. He gets real movement
 with subtle changes of touch and timing. I wish I could play half as well.

Riff 1
[ Tab from: https://www.guitartabs.cc/tabs/m/m_people/search_for_the_hero_btab.html ]
G|---------------------------------------------------------------------------|
D|---------------------------------------------------------------------------|
A|--1-11---1-------1-11----1-1-3---------------------------------------------|
E|-------3-----1-3-------3-------3-------------------------------------------|

Riff 2

G|---------------------------------------------------------------------------|
D|---------------------------------------------------------------------------|
A|--6-66---6-------6-66----6-6-8---------------------------------------------|
E|-------8-----6-8-------8-------8-------------------------------------------|