Lynyrd Skynyrd - Dont Ask Me No Questions Chords & Tabs

 

Dont Ask Me No Questions Chords & Tabs

Lynyrd Skynyrd Chords & Tabs

Version: 3 Type: Tab

Dont Ask Me No Questions Tab

   
		Donít Ask Me No Questions By Lynyrd Skynyrd
                                   
Tabbed by: #1 Skynyrd Fan
Email: skynyrd@iinet.com

This is a really cool Gary Rossington solo to learn. If you are interested in learning
solo I would suggest that you listen to the song while playing it and go slow for a
That is how I learned. This song is off the Second Helping CD.

e|-8 8 7 8 8 8 7 8 8b 6 -----6------------------------------------3---------|
B|----------------------8 6----8 8 6 ----- 8 6------------------------------|
G|-----------------------------------7 5 3------7 5 3 5 5 3 5b 5b -  3------|
D|----------------------------------------------------------------------5---|
A|--------------------------------------------------------------------------|
E|--------------------------------------------------------------------------|
[ Tab from: https://www.guitartabs.cc/tabs/l/lynyrd_skynyrd/dont_ask_me_no_questions_tab_ver_3.html ]
e|-------6-----------------------------------6-----6 7 8 8b  6----------6---|
B|-------6----8  8b 8b 8b 8b 8b 8b 6 8 8 6 8----8---------------8 8 6 8-----|
g--   7---------------------------------------------------------------------|
D|--------------------------------------------------------------------------|
A|--------------------------------------------------------------------------|
E|--------------------------------------------------------------------------|

e|-15-----------------------20b 18-------------------15------------------15-|
B|-----18----------------------------15 17---------------15 17--------------|
G|---------17b 15-17 17 15------------------15 16 17------------15 16 17----|
D|--------------------------------------------------------------------------|
A|--------------------------------------------------------------------------|
E|--------------------------------------------------------------------------|

e|-18b 18b 18b 18b 18b 15---------------------------------------------------|
B|--------------------------------------------------------------------------|
G|--------------------------------------------------------------------------|
D|--------------------------------------------------------------------------|
A|--------------------------------------------------------------------------|
E|--------------------------------------------------------------------------|

| /  slide up
| \  slide down
| h  hammer-on
| p  pull-off
| ~  vibrato
| +  harmonic
| x  Mute note
===============================================================================