Ludwig Van Beethoven - 9th Symphony Chords & Tabs

 

9th Symphony Chords & Tabs

Ludwig Van Beethoven Chords & Tabs

Version: 1 Type: Bass Tab

9th Symphony Bass Tab

I Hoff des passt soweit
[ Tab from: https://www.guitartabs.cc/tabs/l/ludwig_van_beethoven/9th_symphony_btab.html ]
Grle Hamster
G|------0-0-----------------------0-0----------------------|
D|2-2-3----3-2-0---0-2-2-0-0-2-2-3---3-2-0---0-2-0---------|
A|--------------3-3-----------------------3-3-----3-3------|
E|---------------------------------------------------------|

G|-----------------------------|
D|0-0-2-0-2-3-2--0-2-3-2-0-0---|
A|-----3--------3---------3----|
E|---------------------------3-|

G|-----0-0----------------|
D|2-2-3---3-2-0---0-2-0---|
A|-------------3-3-----3-3|
E|------------------------|