Lostprophets - Rooftops Chords & Tabs

 

Rooftops Chords & Tabs

Lostprophets Chords & Tabs

Version: 8 Type: Tab

Rooftops Tab

Title  Rooftops
Artist- Lostprophets
Album  Liberation Transmission

Tabbed by: Larry A

Tuning: Drop C
Guitar 1  Slight Distortion
Guitar 2  Slight Distortion
Guitar 3 - Slight Distortion

 ___________________
| Intro (0:00-0:17) |
|___________________|

Guitar 1
d| |---------------------------------|---------------------------------|
A| |---------------------------------|---------------------------------|
F| |14141414141414141414141414141414-|14141414141414141414141414141414-|
C| |-x-x-x-x-x-x-x-x-x-x-x-x-x-x-x-x-|-x-x-x-x-x-x-x-x-x-x-x-x-x-x-x-x-|
G| |12121212121212121212121212121212-|12121212121212121212121212121212-|
C| |---------------------------------|---------------------------------|
                                                                       |
Guitar 2                                                               |
d| |---------------------------------|---------------------------------|
A| |---------------------------------|---------------------------------|
F| |---------------------------------|---------------------------------|
C| |---------------------------------|---------------------------------|
G| |---------------------------------|-9-9-9-9-9-9-9-9-9-9-9-9-9-9-9-9-|
C| |---------------------------------|---------------------------------|

Guitar 1
d| |---------------------------------|---------------------------------|
A| |---------------------------------|---------------------------------|
F| |14141414141414141414141414141414-|14141414141414141414141414141414-|
C| |-x-x-x-x-x-x-x-x-x-x-x-x-x-x-x-x-|-x-x-x-x-x-x-x-x-x-x-x-x-x-x-x-x-|
G| |12121212121212121212121212121212-|12121212121212121212121212121212-|
C| |---------------------------------|---------------------------------|
                                                                       |
Guitar 2                                                               |
d| |---------------------------------|---------------------------------|
A| |---------------------------------|---------------------------------|
F| |-9-9-9-9-9-9-9-9-9-9-9-9-9-9-9-9-|-9-9-9-9-9-9-9-9-9-9-9-9-9-9-9-9-|
C| |-x-x-x-x-x-x-x-x-x-x-x-x-x-x-x-x-|-x-x-x-x-x-x-x-x-x-x-x-x-x-x-x-x-|
G| |-7-7-7-7-7-7-7-7-7-7-7-7-7-7-7-7-|-7-7-7-7-7-7-7-7-7-7-7-7-7-7-7-7-|
C| |---------------------------------|---------------------------------|
                                                                       |
Guitar 3                                                               |
d| |---------------------------------|---------------------------------|
A| |---------------------------------|---------------------------------|
F| |---------------------------------|16161616161616161616161616161616-|
C| |---------------------------------|-x-x-x-x-x-x-x-x-x-x-x-x-x-x-x-x-|
G| |---------------------------------|14141414141414141414141414141414-|
C| |---------------------------------|---------------------------------|

Guitar 1
d| |---------------------------------|---------------------------------|
A| |---------------------------------|---------------------------------|
F| |14141414141414141414141414141414-|13131313131313131313131313131313-|
C| |-x-x-x-x-x-x-x-x-x-x-x-x-x-x-x-x-|-x-x-x-x-x-x-x-x-x-x-x-x-x-x-x-x-|
G| |12121212121212121212121212121212-|11111111111111111111111111111111-|
C| |---------------------------------|---------------------------------|
                                                                       |
Guitar 2                                                               |
d| |---------------------------------|---------------------------------|
A| |---------------------------------|---------------------------------|
F| |---------------------------------|13131313131313131313131313131313-|
C| |---------------------------------|-x-x-x-x-x-x-x-x-x-x-x-x-x-x-x-x-|
G| |-9-9-9-9-9-9-9-9-9-9-9-9-9-9-9-9-|11111111111111111111111111111111-|
C| |---------------------------------|---------------------------------|
                                                                       |
Guitar 3                                                               |
d| |---------------------------------|---------------------------------|
A| |---------------------------------|---------------------------------|
F| |16161616161616161616161616161616-|16161616161616161616161616161616-|
C| |-x-x-x-x-x-x-x-x-x-x-x-x-x-x-x-x-|-x-x-x-x-x-x-x-x-x-x-x-x-x-x-x-x-|
G| |14141414141414141414141414141414-|14141414141414141414141414141414-|
C| |---------------------------------|---------------------------------|

 ___________________
| Verse (0:18-1:01) |
|___________________|

Guitar 1
d| |---------------------------------|---------------------------------|
A| |o--------------------------------|---------------------------------|
F| |14141414141414141414141414141414-|14141414141414141414141414141414-|
C| |-x-x-x-x-x-x-x-x-x-x-x-x-x-x-x-x-|-x-x-x-x-x-x-x-x-x-x-x-x-x-x-x-x-|
G| |12121212121212121212121212121212-|12121212121212121212121212121212-|
C| |---------------------------------|---------------------------------|
  1.                                                                   |
  2.                                                                   |
  3.                                                                   |
                                                                       |
Guitar 2                                                               |
d| |---------------------------------|---------------------------------|
A| |o--------------------------------|---------------------------------|
F| |---------------------------------|-9-9-9-9-9-9-9-9-9-9-9-9-9-9-9-9-|
C| |---------------------------------|-x-x-x-x-x-x-x-x-x-x-x-x-x-x-x-x-|
G| |o9-9-9-9-9-9-9-9-9-9-9-9-9-9-9-9-|-7-7-7-7-7-7-7-7-7-7-7-7-7-7-7-7-|
C| |---------------------------------|---------------------------------|
                                                                       |
Guitar 3                                                               |
d| |---------------------------------|---------------------------------|
A| |o--------------------------------|---------------------------------|
F| |---------------------------------|16161616161616161616161616161616-|
C| |---------------------------------|-x-x-x-x-x-x-x-x-x-x-x-x-x-x-x-x-|
G| |o--------------------------------|14141414141414141414141414141414-|
C| |---------------------------------|---------------------------------|

Guitar 1
d| |---------------------------------|---------------------------------|
A| |---------------------------------|--------------------------------o|
F| |14141414141414141414141414141414-|13131313131313131313131313131313-|
C| |-x-x-x-x-x-x-x-x-x-x-x-x-x-x-x-x-|-x-x-x-x-x-x-x-x-x-x-x-x-x-x-x-x-|
G| |12121212121212121212121212121212-|11111111111111111111111111111111o|
C| |---------------------------------|---------------------------------|
  1.                                                                   |
  2.                                                                   |
  3.                                                                   |
                                                                       |
Guitar 2                                                               |
d| |---------------------------------|---------------------------------|
A| |---------------------------------|--------------------------------o|
F| |---------------------------------|13131313131313131313131313131313-|
C| |---------------------------------|-x-x-x-x-x-x-x-x-x-x-x-x-x-x-x-x-|
G| |-9-9-9-9-9-9-9-9-9-9-9-9-9-9-9-9-|11111111111111111111111111111111o|
C| |---------------------------------|---------------------------------|
                                                                       |
Guitar 3                                                               |
d| |---------------------------------|---------------------------------|
A| |---------------------------------|--------------------------------o|
F| |16161616161616161616161616161616-|16161616161616161616161616161616-|
C| |-x-x-x-x-x-x-x-x-x-x-x-x-x-x-x-x-|-x-x-x-x-x-x-x-x-x-x-x-x-x-x-x-x-|
G| |14141414141414141414141414141414-|14141414141414141414141414141414o|
C| |---------------------------------|---------------------------------|

Guitar 1
d| |---------------------------------|---------------------------------|
A| |---------------------------------|---------------------------------|
F| |14141414141414141414141414141414-|14141414141414141414141414141414-|
C| |-x-x-x-x-x-x-x-x-x-x-x-x-x-x-x-x-|-x-x-x-x-x-x-x-x-x-x-x-x-x-x-x-x-|
G| |12121212121212121212121212121212-|12121212121212121212121212121212-|
C| |---------------------------------|---------------------------------|
                                                                       |
Guitar 2                                                               |
d| |---------------------------------|---------------------------------|
A| |---------------------------------|---------------------------------|
F| |---------------------------------|-9-9-9-9-9-9-9-9-9-9-9-9-9-9-9-9-|
C| |---------------------------------|-x-x-x-x-x-x-x-x-x-x-x-x-x-x-x-x-|
G| |-9-9-9-9-9-9-9-9-9-9-9-9-9-9-9-9-|-7-7-7-7-7-7-7-7-7-7-7-7-7-7-7-7-|
C| |---------------------------------|---------------------------------|
                                                                       |
Guitar 3                                                               |
d| |---------------------------------|---------------------------------|
A| |---------------------------------|---------------------------------|
F| |---------------------------------|16161616161616161616161616161616-|
C| |---------------------------------|-x-x-x-x-x-x-x-x-x-x-x-x-x-x-x-x-|
G| |---------------------------------|14141414141414141414141414141414-|
C| |---------------------------------|---------------------------------|

Guitar 1
d| |---------------------------------|---------------------------------|
A| |---------------------------------|---------------------------------|
F| |14141414141414141414141414141414-|13131313131313131313131313131313-|
C| |-x-x-x-x-x-x-x-x-x-x-x-x-x-x-x-x-|-x-x-x-x-x-x-x-x-x-x-x-x-x-x-x-x-|
G| |12121212121212121212121212121212-|11111111111111111111111111111111-|
C| |---------------------------------|---------------------------------|
                                                                       |
Guitar 2                                                               |
d| |---------------------------------|---------------------------------|
A| |---------------------------------|---------------------------------|
F| |---------------------------------|---------------------------------|
C| |---------------------------------|-5*----5*5*----5*5*--5*--5*5*5*5*|
G| |-9-9-9-9-9-9-9-9-9-9-9-9-9-9-9-9-|-5*----5*5*----5*5*--5*--5*5*5*5*|
C| |---------------------------------|-5*----5*5*----5*5*--5*--5*5*5*5*|
                                                                       |
Guitar 3                                                               |
d| |---------------------------------|---------------------------------|
A| |---------------------------------|---------------------------------|
F| |16161616161616161616161616161616-|---------------------------------|
C| |-x-x-x-x-x-x-x-x-x-x-x-x-x-x-x-x-|-x-----x-x-----x-x---x---x-x-x-x-|
G| |14141414141414141414141414141414-|-x-----x-x-----x-x---x---x-x-x-x-|
C| |---------------------------------|-x-----x-x-----x-x---x---x-x-x-x-|

 ____________________
| Chorus (1:01-1:22) |
|____________________|

All Guitars
d| |---------------------------------|---------------------------------|
A| |o--------------------------------|---------------------------------|
F| |---------------------------------|---------------------------------|
C| |-0-0-0-0-0-0-0-0-0-0-0-0-0-0-0-0-|-2-2-2-2-2-2-2-2-4-4-4-4-4-7-7-7-|
G| |o0-0-0-0-0-0-0-0-0-0-0-0-0-0-0-0-|-2-2-2-2-2-2-2-2-4-4-4-4-4-7-7-7-|
C| |-0-0-0-0-0-0-0-0-0-0-0-0-0-0-0-0-|-2-2-2-2-2-2-2-2-4-4-4-4-4-7-7-7-|
  1.
  2.

All Guitars
d| |---------------------------------|---------------------------------|
A| |---------------------------------|--------------------------------o|
F| |---------------------------------|---------------------------------|
C| |-0-0-0-0-0-0-0-0-0-0-0-0-0-0-0-0-|-2-2-2-2-2-2-2-2-4-4-4-4-4-2-2-2-|
G| |-0-0-0-0-0-0-0-0-0-0-0-0-0-0-0-0-|-2-2-2-2-2-2-2-2-4-4-4-4-4-2-2-2o|
C| |-0-0-0-0-0-0-0-0-0-0-0-0-0-0-0-0-|-2-2-2-2-2-2-2-2-4-4-4-4-4-2-2-2-|
  1.
  2.

 ___________________
| Verse (1:23-2:05) |
|___________________|

Guitar 1
d| |---------------------------------|---------------------------------|
A| |o--------------------------------|---------------------------------|
F| |14141414141414141414141414141414-|14141414141414141414141414141414-|
C| |-x-x-x-x-x-x-x-x-x-x-x-x-x-x-x-x-|-x-x-x-x-x-x-x-x-x-x-x-x-x-x-x-x-|
G| |12121212121212121212121212121212-|12121212121212121212121212121212-|
C| |---------------------------------|---------------------------------|
  1.                                                                   |
  2.                                                                   |
  3.                                                                   |
                                                                       |
Guitar 2                                                               |
d| |---------------------------------|---------------------------------|
A| |o--------------------------------|---------------------------------|
F| |---------------------------------|---------------------------------|
C| |-0-0-0-0-0-0-0-0-0-0-0-0-0-0-0-0-|-2-2-2-2-2-2-2-2-2-2-2-2-2-2-2-2-|
G| |o0-0-0-0-0-0-0-0-0-0-0-0-0-0-0-0-|-2-2-2-2-2-2-2-2-2-2-2-2-2-2-2-2-|
C| |-0-0-0-0-0-0-0-0-0-0-0-0-0-0-0-0-|-2-2-2-2-2-2-2-2-2-2-2-2-2-2-2-2-|
     * * * * * * * * * * * * * * * *   * * * * * * * * * * * * * * * * |
                                                                       |
Guitar 3                                                               |
d| |---------------------------------|---------------------------------|
A| |o--------------------------------|---------------------------------|
F| |---------------------------------|16161616161616161616161616161616-|
C| |---------------------------------|-x-x-x-x-x-x-x-x-x-x-x-x-x-x-x-x-|
G| |o--------------------------------|14141414141414141414141414141414-|
C| |---------------------------------|---------------------------------|

Guitar 1
d| |---------------------------------|---------------------------------|
A| |---------------------------------|--------------------------------o|
F| |14141414141414141414141414141414-|13131313131313131313131313131313-|
C| |-x-x-x-x-x-x-x-x-x-x-x-x-x-x-x-x-|-x-x-x-x-x-x-x-x-x-x-x-x-x-x-x-x-|
G| |12121212121212121212121212121212-|11111111111111111111111111111111o|
C| |---------------------------------|---------------------------------|
  1.                                                                   |
  2.                                                                   |
  3.                                                                   |
                                                                       |
Guitar 2                                                               |
d| |---------------------------------|---------------------------------|
A| |---------------------------------|--------------------------------o|
F| |---------------------------------|---------------------------------|
C| |-4-4-4-4-4-4-4-4-4-4-4-4-4-4-4-4-|-7-7-7-7-7-7-7-7-7-7-7-7-7-7-7-7-|
G| |-4-4-4-4-4-4-4-4-4-4-4-4-4-4-4-4-|-7-7-7-7-7-7-7-7-7-7-7-7-7-7-7-7o|
C| |-4-4-4-4-4-4-4-4-4-4-4-4-4-4-4-4-|-7-7-7-7-7-7-7-7-7-7-7-7-7-7-7-7-|
     * * * * * * * * * * * * * * * *   * * * * * * * * * * * * * * * * |
                                                                       |
Guitar 3                                                               |
d| |---------------------------------|---------------------------------|
A| |---------------------------------|--------------------------------o|
F| |16161616161616161616161616161616-|16161616161616161616161616161616-|
C| |-x-x-x-x-x-x-x-x-x-x-x-x-x-x-x-x-|-x-x-x-x-x-x-x-x-x-x-x-x-x-x-x-x-|
G| |14141414141414141414141414141414-|14141414141414141414141414141414o|
C| |---------------------------------|---------------------------------|
[ Tab from: https://www.guitartabs.cc/tabs/l/lostprophets/rooftops_tab_ver_8.html ]
Guitar 1
d| |---------------------------------|---------------------------------|
A| |---------------------------------|---------------------------------|
F| |14141414141414141414141414141414-|14141414141414141414141414141414-|
C| |-x-x-x-x-x-x-x-x-x-x-x-x-x-x-x-x-|-x-x-x-x-x-x-x-x-x-x-x-x-x-x-x-x-|
G| |12121212121212121212121212121212-|12121212121212121212121212121212-|
C| |---------------------------------|---------------------------------|
                                                                       |
Guitar 2                                                               |
d| |---------------------------------|---------------------------------|
A| |---------------------------------|---------------------------------|
F| |---------------------------------|---------------------------------|
C| |-0-0-0-0-0-0-0-0-0-0-0-0-0-0-0-0-|-2-2-2-2-2-2-2-2-2-2-2-2-2-2-2-2-|
G| |-0-0-0-0-0-0-0-0-0-0-0-0-0-0-0-0-|-2-2-2-2-2-2-2-2-2-2-2-2-2-2-2-2-|
C| |-0-0-0-0-0-0-0-0-0-0-0-0-0-0-0-0-|-2-2-2-2-2-2-2-2-2-2-2-2-2-2-2-2-|
     * * * * * * * * * * * * * * * *   * * * * * * * * * * * * * * * * |
Guitar 3                                                               |
d| |---------------------------------|---------------------------------|
A| |---------------------------------|---------------------------------|
F| |---------------------------------|16161616161616161616161616161616-|
C| |---------------------------------|-x-x-x-x-x-x-x-x-x-x-x-x-x-x-x-x-|
G| |---------------------------------|14141414141414141414141414141414-|
C| |---------------------------------|---------------------------------|

Guitar 1
d| |---------------------------------|---------------------------------|
A| |---------------------------------|---------------------------------|
F| |14141414141414141414141414141414-|13131313131313131313131313131313-|
C| |-x-x-x-x-x-x-x-x-x-x-x-x-x-x-x-x-|-x-x-x-x-x-x-x-x-x-x-x-x-x-x-x-x-|
G| |12121212121212121212121212121212-|11111111111111111111111111111111-|
C| |---------------------------------|---------------------------------|
                                                                       |
Guitar 2                                                               |
d| |---------------------------------|---------------------------------|
A| |---------------------------------|---------------------------------|
F| |---------------------------------|---------------------------------|
C| |-4-4-4-4-4-4-4-4-4-4-4-4-4-4-4-4-|-5*----5*5*----5*5*--5*--5*5*5*5*|
G| |-4-4-4-4-4-4-4-4-4-4-4-4-4-4-4-4-|-5*----5*5*----5*5*--5*--5*5*5*5*|
C| |-4-4-4-4-4-4-4-4-4-4-4-4-4-4-4-4-|-5*----5*5*----5*5*--5*--5*5*5*5*|
     * * * * * * * * * * * * * * * *                                   |
                                                                       |
Guitar 3                                                               |
d| |---------------------------------|---------------------------------|
A| |---------------------------------|---------------------------------|
F| |16161616161616161616161616161616-|---------------------------------|
C| |-x-x-x-x-x-x-x-x-x-x-x-x-x-x-x-x-|-x-----x-x-----x-x---x---x-x-x-x-|
G| |14141414141414141414141414141414-|-x-----x-x-----x-x---x---x-x-x-x-|
C| |---------------------------------|-x-----x-x-----x-x---x---x-x-x-x-|

 ____________________
| Chorus (2:06-2:27) |
|____________________|

All Guitars
d| |---------------------------------|---------------------------------|
A| |o--------------------------------|---------------------------------|
F| |---------------------------------|---------------------------------|
C| |-0-0-0-0-0-0-0-0-0-0-0-0-0-0-0-0-|-2-2-2-2-2-2-2-2-4-4-4-4-4-7-7-7-|
G| |o0-0-0-0-0-0-0-0-0-0-0-0-0-0-0-0-|-2-2-2-2-2-2-2-2-4-4-4-4-4-7-7-7-|
C| |-0-0-0-0-0-0-0-0-0-0-0-0-0-0-0-0-|-2-2-2-2-2-2-2-2-4-4-4-4-4-7-7-7-|
  1.
  2.

All Guitars
d| |---------------------------------|---------------------------------|
A| |---------------------------------|--------------------------------o|
F| |---------------------------------|---------------------------------|
C| |-0-0-0-0-0-0-0-0-0-0-0-0-0-0-0-0-|-2-2-2-2-2-2-2-2-4-4-4-4-4-2-2-2-|
G| |-0-0-0-0-0-0-0-0-0-0-0-0-0-0-0-0-|-2-2-2-2-2-2-2-2-4-4-4-4-4-2-2-2o|
C| |-0-0-0-0-0-0-0-0-0-0-0-0-0-0-0-0-|-2-2-2-2-2-2-2-2-4-4-4-4-4-2-2-2-|
  1.
  2.

 __________________
| Solo (2:27-2:48) |
|__________________|

Guitar 1
d| |---------------------------------|---------------------------------|
A| |---------------------------------|---------------------------------|
F| |/14141414141414141313131313131313|-------------------------------/-|
C| |---------------------------------|141414141414141414141414141414---|
G| |---------------------------------|---------------------------------|
C| |---------------------------------|---------------------------------|
                                                                       |
Guitar 2 & 3                                                           |
d| |---------------------------------|---------------------------------|
A| |---------------------------------|---------------------------------|
F| |---------------------------------|---------------------------------|
C| |-0-0-0-0-0-0-0-0-0-0-0-0-0-0-0-0-|-2-2-2-2-2-2-2-2-2-2-2-2-2-2-2-2-|
G| |-0-0-0-0-0-0-0-0-0-0-0-0-0-0-0-0-|-2-2-2-2-2-2-2-2-2-2-2-2-2-2-2-2-|
C| |-0-0-0-0-0-0-0-0-0-0-0-0-0-0-0-0-|-2-2-2-2-2-2-2-2-2-2-2-2-2-2-2-2-|

Guitar 1
d| |---------------------------------|---------------------------------|
A| |---------------------------------|---------------------------------|
F| |11111111111111111111111113131313-|-------------------------------/-|
C| |---------------------------------|141414141414141414141414141414---|
G| |---------------------------------|---------------------------------|
C| |---------------------------------|---------------------------------|
                                                                       |
Guitar 2 & 3                                                           |
d| |---------------------------------|---------------------------------|
A| |---------------------------------|---------------------------------|
F| |---------------------------------|---------------------------------|
C| |-4-4-4-4-4-4-4-4-4-4-4-4-4-4-4-4-|-7-7-7-7-7-7-7-7-7-7-7-7-7-7-7-7-|
G| |-4-4-4-4-4-4-4-4-4-4-4-4-4-4-4-4-|-7-7-7-7-7-7-7-7-7-7-7-7-7-7-7-7-|
C| |-4-4-4-4-4-4-4-4-4-4-4-4-4-4-4-4-|-7-7-7-7-7-7-7-7-7-7-7-7-7-7-7-7-|

Guitar 1
d| |---------------------------------|---------------------------------|
A| |---------------------------------|---------------------------------|
F| |14141414141414141616161616161616-|13131111-----------------------/-|
C| |---------------------------------|--------1414141414141414141414---|
G| |---------------------------------|---------------------------------|
C| |---------------------------------|---------------------------------|
                                                                       |
Guitar 2 & 3                                                           |
d| |---------------------------------|---------------------------------|
A| |---------------------------------|---------------------------------|
F| |---------------------------------|---------------------------------|
C| |-0-0-0-0-0-0-0-0-0-0-0-0-0-0-0-0-|-2-2-2-2-2-2-2-2-2-2-2-2-2-2-2-2-|
G| |-0-0-0-0-0-0-0-0-0-0-0-0-0-0-0-0-|-2-2-2-2-2-2-2-2-2-2-2-2-2-2-2-2-|
C| |-0-0-0-0-0-0-0-0-0-0-0-0-0-0-0-0-|-2-2-2-2-2-2-2-2-2-2-2-2-2-2-2-2-|

Guitar 1
d| |---------------------------------|---------------------------------|
A| |---------------------------------|---------------------------------|
F| |11111111111111111111111111111111~|---------------------------------|
C| |---------------------------------|---------------------------------|
G| |---------------------------------|---------------------------------|
C| |---------------------------------|---------------------------------|
                                                                       |
Guitar 2 & 3                                                           |
d| |---------------------------------|---------------------------------|
A| |---------------------------------|---------------------------------|
F| |---------------------------------|---------------------------------|
C| |-4-4-4-4-4-4-4-4-4-4-4-4-4-4-4-4-|-4-4-4-----------4-4-4-----------|
G| |-4-4-4-4-4-4-4-4-4-4-4-4-4-4-4-4-|-4-4-4-----------4-4-4-----------|
C| |-4-4-4-4-4-4-4-4-4-4-4-4-4-4-4-4-|-4-4-4-----------4-4-4-----------|

 ____________________
| Bridge (2:49-3:10) |
|____________________|

Guitar 1
d| |---------------------------------|---------------------------------|
A| |---------------------------------|---------------------------------|
F| |-7-7-7-7-7---7---7-7-7-7-7---7---|-9-9-9-9-9---9---9-9-9-9-9---9---|
C| |-x-x-x-x-x---x---x-x-x-x-x---x---|-x-x-x-x-x---x---x-x-x-x-x---x---|
G| |-5-5-5-5-5---5---5-5-5-5-5---5---|-7-7-7-7-7---7---7-7-7-7-7---7---|
C| |---------------------------------|---------------------------------|
                                                                       |
Guitar 2 & 3                                                           |
d| |---------------------------------|---------------------------------|
A| |---------------------------------|---------------------------------|
F| |---------------------------------|---------------------------------|
C| |-0-0-0-0-0---0---0-0-0-0-0---0---|-2-2-2-2-2---2---2-2-2-2-2---2---|
G| |-0-0-0-0-0---0---0-0-0-0-0---0---|-2-2-2-2-2---2---2-2-2-2-2---2---|
C| |-0-0-0-0-0---0---0-0-0-0-0---0---|-2-2-2-2-2---2---2-2-2-2-2---2---|

Guitar 1
d| |---------------------------------|---------------------------------|
A| |---------------------------------|---------------------------------|
F| |1111111111--11--1111111111--11---|1414141414--14--1414141414--14---|
C| |-x-x-x-x-x---x---x-x-x-x-x---x---|-x-x-x-x-x---x---x-x-x-x-x---x---|
G| |-9-9-9-9-9---9---9-9-9-9-9---9---|1212121212--12--1212121212--12---|
C| |---------------------------------|---------------------------------|
                                                                       |
Guitar 2 & 3                                                           |
d| |---------------------------------|---------------------------------|
A| |---------------------------------|---------------------------------|
F| |---------------------------------|---------------------------------|
C| |-4-4-4-4-4---4---4-4-4-4-4---4---|-7-7-7-7-7---7---7-7-7-7-7---7---|
G| |-4-4-4-4-4---4---4-4-4-4-4---4---|-7-7-7-7-7---7---7-7-7-7-7---7---|
C| |-4-4-4-4-4---4---4-4-4-4-4---4---|-7-7-7-7-7---7---7-7-7-7-7---7---|

Guitar 1
d| |---------------------------------|---------------------------------|
A| |---------------------------------|---------------------------------|
F| |-7-7-7-7-7---7---7-7-7-7-7---7---|-9-9-9-9-9---9---9-9-9-9-9---9---|
C| |-x-x-x-x-x---x---x-x-x-x-x---x---|-x-x-x-x-x---x---x-x-x-x-x---x---|
G| |-5-5-5-5-5---5---5-5-5-5-5---5---|-7-7-7-7-7---7---7-7-7-7-7---7---|
C| |---------------------------------|---------------------------------|
                                                                       |
Guitar 2                                                               |
d| |---------------------------------|---------------------------------|
A| |---------------------------------|---------------------------------|
F| |---------------------------------|---------------------------------|
C| |-0-0-0-0-0---0---0-0-0-0-0---0---|-2-2-2-2-2---2---2-2-2-2-2---2---|
G| |-0-0-0-0-0---0---0-0-0-0-0---0---|-2-2-2-2-2---2---2-2-2-2-2---2---|
C| |-0-0-0-0-0---0---0-0-0-0-0---0---|-2-2-2-2-2---2---2-2-2-2-2---2---|
                                                                       |
Guitar  3                                                              |
d| |12--12--12--12--12--12--12--12---|12--12--12--12--12--12--12--12---|
A| |--12--12--12--12--12--12--12--12-|--12--12--12--12--12--12--12--12-|
F| |---------------------------------|---------------------------------|
C| |---------------------------------|---------------------------------|
G| |---------------------------------|---------------------------------|
C| |---------------------------------|---------------------------------|


Guitar 1
d| |---------------------------------|---------------------------------|
A| |---------------------------------|---------------------------------|
F| |1111111111--11--1111111111--11---|1414141414--14--1414141414--14---|
C| |-x-x-x-x-x---x---x-x-x-x-x---x---|-x-x-x-x-x---x---x-x-x-x-x---x---|
G| |-9-9-9-9-9---9---9-9-9-9-9---9---|1212121212--12--1212121212--12---|
C| |---------------------------------|---------------------------------|
                                                                       |
Guitar 2                                                               |
d| |---------------------------------|---------------------------------|
A| |---------------------------------|---------------------------------|
F| |---------------------------------|---------------------------------|
C| |-4-4-4-4-4---4---4-4-4-4-4---4---|-7-7-7-7-7---7---7-7-7-7-7---7---|
G| |-4-4-4-4-4---4---4-4-4-4-4---4---|-7-7-7-7-7---7---7-7-7-7-7---7---|
C| |-4-4-4-4-4---4---4-4-4-4-4---4---|-7-7-7-7-7---7---7-7-7-7-7---7---|
                                                                       |
Guitar  3                                                              |
d| |12--12--12--12--12--12--12--12---|12--12--12--12--12--12--12--12---|
A| |--12--12--12--12--12--12--12--12-|--12--12--12--12--12--12--12--12-|
F| |---------------------------------|---------------------------------|
C| |---------------------------------|---------------------------------|
G| |---------------------------------|---------------------------------|
C| |---------------------------------|---------------------------------|

 ____________________
| Chorus (3:10-3:32) |
|____________________|

All Guitars
d| |---------------------------------|---------------------------------|
A| |---------------------------------|---------------------------------|
F| |---------------------------------|---------------------------------|
C| |-0-0-0-0-0-0-0-0-0-0-0-0-0-0-0-0-|-2-2-2-2-2-2-2-2-4-4-4-4-4-7-7-7-|
G| |-0-0-0-0-0-0-0-0-0-0-0-0-0-0-0-0-|-2-2-2-2-2-2-2-2-4-4-4-4-4-7-7-7-|
C| |-0-0-0-0-0-0-0-0-0-0-0-0-0-0-0-0-|-2-2-2-2-2-2-2-2-4-4-4-4-4-7-7-7-|

All Guitars
d| |---------------------------------|---------------------------------|
A| |---------------------------------|---------------------------------|
F| |---------------------------------|---------------------------------|
C| |-0-0-0-0-0-0-0-0-0-0-0-0-0-0-0-0-|-2-2-2-2-2-2-2-2-4-4-4-4-4-2-2-2-|
G| |-0-0-0-0-0-0-0-0-0-0-0-0-0-0-0-0-|-2-2-2-2-2-2-2-2-4-4-4-4-4-2-2-2-|
C| |-0-0-0-0-0-0-0-0-0-0-0-0-0-0-0-0-|-2-2-2-2-2-2-2-2-4-4-4-4-4-2-2-2-|

All Guitars
d| |---------------------------------|---------------------------------|
A| |---------------------------------|---------------------------------|
F| |---------------------------------|---------------------------------|
C| |-0-0-0-0-0-0-0-0-0-0-0-0-0-0-0-0-|-2-2-2-2-2-2-2-2-4-4-4-4-4-7-7-7-|
G| |-0-0-0-0-0-0-0-0-0-0-0-0-0-0-0-0-|-2-2-2-2-2-2-2-2-4-4-4-4-4-7-7-7-|
C| |-0-0-0-0-0-0-0-0-0-0-0-0-0-0-0-0-|-2-2-2-2-2-2-2-2-4-4-4-4-4-7-7-7-|

All Guitars
d| |---------------------------------|---------------------------------|
A| |---------------------------------|---------------------------------|
F| |---------------------------------|---------------------------------|
C| |-0-0-0-0-0-0-0-0-0-0-0-0-0-0-0-0-|-4-4-4-----------4-4-4-----------|
G| |-0-0-0-0-0-0-0-0-0-0-0-0-0-0-0-0-|-4-4-4-----------4-4-4-----------|
C| |-0-0-0-0-0-0-0-0-0-0-0-0-0-0-0-0-|-4-4-4-----------4-4-4-----------|


 ___________________
| Outro (3:32-4:08) |
|___________________|

All Guitars
d| |---------------------------------|---------------------------------|
A| |---------------------------------|---------------------------------|
F| |---------------------------------|---------------------------------|
C| |-0-0-0-0-0-0-0-0-0-0-0-0-0-0-0-0-|-2-2-2-2-2-2-2-2-4-4-4-4-4-7-7-7-|
G| |-0-0-0-0-0-0-0-0-0-0-0-0-0-0-0-0-|-2-2-2-2-2-2-2-2-4-4-4-4-4-7-7-7-|
C| |-0-0-0-0-0-0-0-0-0-0-0-0-0-0-0-0-|-2-2-2-2-2-2-2-2-4-4-4-4-4-7-7-7-|

All Guitars
d| |---------------------------------|---------------------------------|
A| |---------------------------------|---------------------------------|
F| |---------------------------------|---------------------------------|
C| |-0-0-0-0-0-0-0-0-0-0-0-0-0-0-0-0-|-2-2-2-2-2-2-2-2-4-4-4-4-4-2-2-2-|
G| |-0-0-0-0-0-0-0-0-0-0-0-0-0-0-0-0-|-2-2-2-2-2-2-2-2-4-4-4-4-4-2-2-2-|
C| |-0-0-0-0-0-0-0-0-0-0-0-0-0-0-0-0-|-2-2-2-2-2-2-2-2-4-4-4-4-4-2-2-2-|

All Guitars
d| |---------------------------------|---------------------------------|
A| |---------------------------------|---------------------------------|
F| |---------------------------------|---------------------------------|
C| |-0-0-0-0-0-0-0-0-0-0-0-0-0-0-0-0-|-2-2-2-2-2-2-2-2-4-4-4-4-4-7-7-7-|
G| |-0-0-0-0-0-0-0-0-0-0-0-0-0-0-0-0-|-2-2-2-2-2-2-2-2-4-4-4-4-4-7-7-7-|
C| |-0-0-0-0-0-0-0-0-0-0-0-0-0-0-0-0-|-2-2-2-2-2-2-2-2-4-4-4-4-4-7-7-7-|

All Guitars
d| |---------------------------------|---------------------------------|
A| |---------------------------------|---------------------------------|
F| |---------------------------------|---------------------------------|
C| |-0-0-0-0-0-0-0-0-0-0-0-0-0-0-0-0-|-2~--------------4~--------------|
G| |-0-0-0-0-0-0-0-0-0-0-0-0-0-0-0-0-|-2~--------------4~--------------|
C| |-0-0-0-0-0-0-0-0-0-0-0-0-0-0-0-0-|-2~--------------4~--------------|

Guitar 1
d| |---------------------------------|---------------------------------|
A| |---------------------------------|---------------------------------|
F| |---------------------------------|---------------------------------|
C| |---------------------------------|---------------------------------|
G| |---------------------------------|---------------------------------|
C| |---------------------------------|---------------------------------|

Guitar 1
d| |---------------------------------|---------------------------------|
A| |---------------------------------|---------------------------------|
F| |---------------------------------|---------------------------------|
C| |---------------------------------|---------------------------------|
G| |---------------------------------|---------------------------------|
C| |---------------------------------|---------------------------------|


 ________
| Legend |
|________|

~  - Sustain
x  - Mute
5* - Harmonics
*  - Palm Mute
/  - Slide up

 _______
| Notes |
|_______|

This was really easy to tab; I don't know how the other guys made such incomplete tabs. 
will add lyrics tomorrow. The guitars in the verses may use some tremolo effect.