Los Fabulosos Cadillacs - Padre Nuestro Chords & Tabs

 

Padre Nuestro Chords & Tabs

Los Fabulosos Cadillacs Chords & Tabs

Version: 1 Type: Bass Tab

Padre Nuestro Bass Tab

   
Intro
G|-----|--------|  G|------------|en la cuarta vez acabar en el siete
D|-----|--------|  D|------------|x4
A|-7/0-|-2/12/7-|  A|-7-----(7)--|
E|-----|--------|  E|--7-7---10-|

G|---|   G|--------|   G|-------|---------|-------|--------9-|-9-9--------|
D|---|x4 D|--------|X4 D|-------|-7-5-7-5-|-------|------9---|-----9------|
A|---|   A|-7------|   A|-7-6-5-|---------|-5-6-7-|-7-10-----|-------10-7-|
E|-0-|   E|---7-10-|   E|-------|---------|-------|----------|------------|

Verso
G|----| G|--------|   G|--------|   G|-------|   G|---------|---------|----------|
D|-14-| D|--------|x4 D|----5-9-|x4 D|-------|x2 D|---------|---------|----5-9---|
A|----| A|----6-9-|   A|-7------|   A|---6-9-|   A|----66-9-|----6999-|-7------7-|
E|----| E|-7------|   E|--------|   E|-7-----|   E|-7-------|-7-------|----------|

Coro
G|--------|-------|------|-------|-------|-------|------|---------|--------|
D|--------|-7---7-|-9-10-|-------|-------|-9---9-|------|---------|--------|
A|-7-9-10-|---7---|------|-7---7-|-10-12-|---9---|-10-9-|-7---7-7-|-7-9-10-| 
E|--------|-------|------|---7---|-------|-------|------|---7-----|--------|
[ Tab from: https://www.guitartabs.cc/tabs/l/los_fabulosos_cadillacs/padre_nuestro_btab.html ]
                                                                (  Fill                 )  
G|--------|-----------|--------|-----------|--------|-------|---|--------9-|-9-9--------|
D|--------|---7-5-7-5-|----5-9-|---9-7-9-7-|--------|-------|---|------9---|-----9------|
A|----3-7-|-----------|-7------|-7---------|----6-9-|---6-9-|-7-|-7-10-----|-------10-7-|
E|-5------|-5---------|--------|-----------|-7------|-7-----|---|----------|------------|

-Tocar Verso x1-
-Tocar Coro x1- Excepto el Fill y reemplazarlo con esto:

G|-------|
D|-------|
A|-7-7-7-| 
E|-------|

-Pre coro- (no se toca nada)
-Tocar Coro x1- Excepto el Fill y reemplazarlo con esto:

G|-------|
D|-------|
A|-7-7-7-| 
E|-------|


G|-------11-12-12-13-14-|
D|-10-12----------------|
A|----------------------|
E|----------------------|

G|------------|en la cuarta vez acabar en el siete
D|------------|x4
A|-7-----(7)--|
E|--7-7---10-|

G|---|   G|--------|   
D|---|x4 D|--------|X4 
A|---|   A|-7------|   
E|-0-|   E|---7-10-|
   
-Coro x2- segunda vez reemplazar fill con esto:
G|---------|
D|-9-7-5---|
A|-------7-|
E|---------|

Final
G|---|   G|--------|---------|-1212117-7-|--------|---------||
D|---|x4 D|--------|-7-5-7-5-|-----------|--------|---------||
A|---|   A|-7------|---------|-----------|------7-|-10109-5-||	
E|-0-|   E|---7-10-|---------|-----------|-7-10---|---------||

Hice la tablaura de un video, aqui esta el link:http://www.youtube.com/watch?v=MPgcI10fo4Q