Litfiba - Louisiana Chords & Tabs

 

Louisiana Chords & Tabs

Litfiba Chords & Tabs

Version: 1 Type: Bass Tab

Louisiana Bass Tab

LITFIBA - LOUISIANA
ALBUM: lITFIBA 3 (1988)
BASSIST: GIANNI MAROCCOLO

INTRO/VERSE

E -------------------3-5-7-------------------------------5----|
A ---------------------------4-2-0--4-2--4(4)-2-0--0h2-0---2--|
D --7-6-4---4-6-7/5-------------------------------------------|
G ------------------------------------------------------------|

Marok varia questa frase per tutta la canzone... ne saremo mai all'altezza?

VARIATIONS

E --------------------------3-5-7------------------------5----|
A --------------------------------4-2-0--4-2--2/4/2-0h2----2--|
D -4-6-7*--6-7-6-4--4-6-7/5-----------------------------------|
G ------------------------------------------------------------|
[ Tab from: https://www.guitartabs.cc/tabs/l/litfiba/louisiana_btab.html ]
E --------------------------5-3-5-7--------------------------------4----|
A -----------------------------------2/4-2-0--2/4-2--2h4-2-0-0h2-0---2--|
D -4-6-7*--6-7-6-4--4-6-7/5---------------------------------------------|
G ----------------------------------------------------------------------|

Marok raddoppia alcune note, insieme alla velocitÓ di esecuzione, ma tendenzialmente 
su queste variazioni...

OUTRO (dopo gli oh oh oh)

E --------------------------3-5-7---------------------------5----|
A --------------------------------4-(4)2-0--4-2--2/4/2-0h2----2--|
D -4-6-7*--6-7-6-4--4-6-7/5--------------------------------------|
G ---------------------------------------------------------------|

E ---------------------------5-----|
A --4-(4)2-0--4-2--2/4/2-0h2----2--|
D ---------------------------------|
G ---------------------------------|

E ---------------------------|
A --4-4-2-0--2h4-2h4-2h4--2--|    ... ecc...  variare la parte finale della
D ---------------------------|                strofa durante l'outro.
G ---------------------------|


PEZZO DA BRIVIDI.
MAROK UN MAESTRO...

JAH WOBBLE IS GOD