Litfiba - Dimmi Il Nome Chords & Tabs

 

Dimmi Il Nome Chords & Tabs

Litfiba Chords & Tabs

Version: 1 Type: Bass Tab

Dimmi Il Nome Bass Tab

DIMMI IL NOME

Il tabulato non  chiarissimo ma la canzone  talmente semplice che basta un ascolto per 
quali sono le varie parti e suonarla bene! Enjoy!

Intro and Verse 1:
-----------------|-----------------------|
-----------------|-----------------------|
-----------------|-----------------------|
-5--3-5--7-6-5---|--3-3-3--1-1-1---------|
[ Tab from: https://www.guitartabs.cc/tabs/l/litfiba/dimmi_il_nome_btab.html ]
Bridge:
-------------|---------------|-------------------------|
-------------|---------------|-------------------------|
-------------|---------------|------3333-555-6---------|
-3----1-/3---|-5--3-5--7-6-5-|-3333--------------------|

Chorus:
-----------------------------------|
-----------------------------------|
-----------------------------------|
--55---55---88-7-6--88-7-6---------|

Verse 2:
----------|--------------|-------|
----------|--------------|-------|
----------|--------------|-------|
--5-7-5-7-|-3-3-3--1-1-1-|-------|

Bridge2:
-----------------------------------|
-----------------------------------|
-----------------------------------|
-111111-------8--8-7-6-------------|

Ending: intro x 2 - bridge2

By SSimo.