Liquido - Why Are You Leaving Chords & Tabs

 

Why Are You Leaving Chords & Tabs

Liquido Chords & Tabs

Version: 1 Type: Bass Tab

Why Are You Leaving Bass Tab

   
-------------------------------------------------------------------------------
			     Why are you leaving - Liquido
-------------------------------------------------------------------------------

Tabbed By : Bubo90
e-mail: novoselic23@hotmail.it

N.B : there is a distortion for bass-guitar in this song...

Tuning:

INTRO
G|---------------------------------------------------------------------------|
D|---------------------------------------------------------------------------|
A|---------------------------------------------------------------------------|
E|--6~ 6~ ----6/9\6---6/12\6-----6/15\6-----12/17\1212/17\1212/20\18------|

Play this intro up to 11 second...

VERSE 1
G|------------------------------------------------------------------------|
D|------------------------------------------------------------------------|
A|------------------------------------4-4-4-4-4-4-\1----------------------|
E|--6-6-6-6-6-6-6-6-6-6-6-6-6\4-4-4-4-------------------------------------|

G|-----3-3----3--------3-3-----3-|  |---------------------------------------|
D|-------------------------------|  |---------------------------------------|
A|-1-1------1------1-1------1----|X2|----------4-4-4-4-4-4------------------|
E|-------------------------------|  |-6\4-4-4-4--------------4-6------------|
[ Tab from: https://www.guitartabs.cc/tabs/l/liquido/why_are_you_leaving_btab.html ]
VERSE 2
G|---------------------------------------------------------------------------|
D|---------------------------------------------------------------------------|
A|------------------------------------4-4-4-4-4-4----------------------------|
E|--6-6-6-6-6-6-6-6-6-6-6-6-6\4-4-4-4--------------4-6-----------------------|

G|---------------------------------------------------------------------------|
D|---------------------------------------------------------------------------|
A|-------------------------------------------------------------4-4-4-4-4-4---|
E|--6-6-6-6-6-6-6-6-6-6-6-6-6--PAUSE---6-6-6-6-6-6-6-6\4-4-4-4---------------|

 VERSE 1

PRE-CHORUS X2
G|---------------------------------------------------------------------------|
D|---------------------------------------------------------------------------|
A|--6-6-6-6-6-6-4-4-4-4-4-4--------------------------------------------------|
E|--------------------------6-6-6-6-6-6-6-6-6-6-6-6--------------------------|

CHORUS X4
G|---------------------------------------------------------------------------|
D|---------------------------------------------------------------------------|
A|------------------------------------------------------6-6-6-6-6-6-6-6-6----|
E|--6-6-6-6-6-6-6-6-6-1-1-1-1-1-1-1-1-1-3-3-3-3-3-3-3-3----------------------|

VERSE 1
VERSE 2
PRECHORUS
CHORUS

LONG PAUSE...
AT 3.06 MINUTS ->CHORUS X6



| /  slide up
| \  slide down
| h  hammer-on
| p  pull-off
| ~  vibrato
| +  harmonic
| x  Mute note
===============================================================================