Linkin Park - Papercut Chords & Tabs

 

Papercut Chords & Tabs

Linkin Park Chords & Tabs

Version: 5 Type: Bass Tab

Papercut Bass Tab

   
Linkin Park
Papercut
5 String Bass - Standard Tuning
Tabbed by: PitchImperfect
Date: 18/04/06

Here's my take on Papercut.  I've tried to be as detailed as possible even down to the 
note differences (you can see that on the outro).
The intro and chorus donít sound right at first.  At first I thought it went:
G|------------------------------|
D|------------------------------|
A|-------76-62--2-2-----2h4-----|
E|----------------------4-------|
B|-2-2-2------------------------|
But it didnít quite sound right.  If you listen really carefully you can hear it is 
how Iíve written it below.
You might want to play it the way Iíve written it above, it kinda sounds better, but I 
you the one below is more accurate.
Also you can play the outro in 3 different hand positions.  Iíve written the one I find 
most comfortable and sounds the best on my bass.
Hope you enjoy it, let me know what you think.


INTRO
G|----------------------------|     G|------------------------------|
D|----------------------------|     D|------------------------------|
A|-------76-6-----------2h4-|     A|-------76-6-----------2h4-------|
E|-------------0--0-0---4-----|     E|----------------------4-------|
B|-2-2-2----------------------| x3  B|-2-2-2-------5--5-5-----------|
                                      You might find it more comfortable
G|-------------------------------------|       to play it like this.
D|-------------------------------------|
A|-------76-6--------------------------|
E|-------------0--0-0------------------|
B|-2-2-2----------------3-3-5----------|


VERSE
G|----------------------------|
D|----------------------------|
A|----------------------------|
E|---------5--5-5-4-4---------|
B|-2-2-2----------------3-3-5-| x4

G|----------------------------|
D|----------------------------|
A|----------------------------|
E|---------5--5-5-4-4---------|
B|-2-2-2----------------------|

G|----------------------------|
D|----------------------------|
A|----------------------------|
E|---------5--5-5-4-4---------|
B|-2-2-2----------------3-3-5-| x2

G|----------------------------|
D|----------------------------|
A|----------------------------|
E|---------5--5-5-4-4---------|
B|-2-2-2----------------------|


CHORUS
G|-------------------------------|
D|-------------------------------|
A|-------76-6-----------2h4------|
E|-------------0--0-0---4--------|
B|-2-2-2-------------------------| x3

G|------------------------------|
D|------------------------------|
A|-------76-6-------------------|
E|-------------0--0-0-----------|
B|-2-2-2----------------3-3-5---|


VERSE
G|----------------------------|
D|----------------------------|
A|----------------------------|
E|---------5--5-5-4-4---------|
B|-2-2-2----------------3-3-5-| x4

G|----------------------------|
D|----------------------------|
A|----------------------------|
E|---------5--5-5-4-4---------|
B|-2-2-2----------------------|

G|----------------------------|
D|----------------------------|
A|----------------------------|
E|---------5--5-5-4-4---------|
B|-2-2-2----------------3-3-5-| x2

G|----------------------------|
D|----------------------------|
A|----------------------------|
E|---------5--5-5-4-4---------|
B|-2-2-2----------------------|

[ Tab from: https://www.guitartabs.cc/tabs/l/linkin_park/papercut_btab_ver_5.html ]
CHORUS
G|-------------------------------|
D|-------------------------------|
A|-------76-6-----------2h4------|
E|-------------0--0-0---4--------|
B|-2-2-2-------------------------| x7

G|------------------------------|
D|------------------------------|
A|-------76-6-------------------|
E|-------------0--0-0-----------|
B|-2-2-2----------------3-3-5---|


BRIDGE
G|----------------------------|
D|----------------------------|
A|----------------------------|
E|----------------------------|
B|-2-2-2----------------3-3-5-| x3

G|---------------------------------|
D|---------------------------------|
A|---------------------------------|
E|---------------------------------|
B|-2-2-2-2-2-2-2-2-2-2-2-2-2-2-2-2-|


OUTRO
G|-----------------------------------------------------|
D|-----------------------------------------------------|
A|-----------------------------------------------------|
E|-5-5-5---5--5-5-7-7---7------------------------------|
B|-------------------------7-7-7-7---7--7-5-7-7---7--7-|

G|-----------------------------------------------------|
D|-----------------------------------------------------|
A|-----------------------------------------------------|
E|-5-5-5---5--5-5-7-7---7------------------------------|
B|-------------------------7-7-7-7---7--7-7-7-7---7--7-|

G|-----------------------------------------------------|
D|-----------------------------------------------------|
A|-----------------------------------------------------|
E|-5-5-5---5--5-5-7-7---7------------------------------|
B|-------------------------7-7-7-7---7--7-5-7-7---7--7-|

G|-------------------------------------------------------|
D|-------------------------------------------------------|
A|----------------------------------------7-9-9-7--------|
E|-5-5-5---5--5-5-7-7---7--------------------------9-----|
B|-------------------------7-7-7-7---7--7----------------|

G|-----------------------------------------------------|
D|-----------------------------------------------------|
A|-----------------------------------------------------|
E|-5-5-5---5--5-5-7-7---7------------------------------|
B|-------------------------7-7-7-7---7--7-7-7-7---7--7-|

G|-----------------------------------------------------|
D|-----------------------------------------------------|
A|-----------------------------------------------------|
E|-5-5-5---5--5-5-7-7---7------------------------------|
B|-------------------------7-7-7-7---7--7-5-7-7---7--7-|

G|-----------------------------------------------------|
D|-----------------------------------------------------|
A|-----------------------------------------------------|
E|-5-5-5---5--5-5-7-7---7--7---------------------------|
B|---------------------------7-7-7---7--7-7-7-7---7--7-|

G|-----------------------------------------------------|
D|-----------------------------------------------------|
A|-----------------------------------------------------|
E|-5-5-5---5--5-7-7-7---7--7-5-5-5---5--5-5-7-7---7--7-|
B|-----------------------------------------------------|

G|----------------------------------------------------------|
D|----------------------------------------------------------|
A|----------------------------------------------------------|
E|-5-5-5---5--5-5-7-7---7--7--------------------------------|
B|---------------------------7-7-7---7--7-7-7-7--3-3-5-2-2-2|