Lindsay Lohan - Confessions Of A Broken Heart Chords & Tabs

 

Confessions Of A Broken Heart Chords & Tabs

Lindsay Lohan Chords & Tabs

Version: 1 Type: Bass Tab

Confessions Of A Broken Heart Bass Tab

Notes: 101010=10 10 10  121412=12 14 12 etc.

this tab isn't all that hard, it gets challenging but if you know how it goes it's
pretty easy. depends on what level you play. i'm definitely sure this is correct,
i've went over this for 2 and a half hours and it seems so right it's scary. very
fun tab though, once you get it you'll want to play it constantly.
|*JL*|

/=slide up
\=slide down
h=hammer on


...and I carry the weight of the world on my shoulders...

Verse 1
4|------7-7---5-5---4-4~--3-3---------------------------|
3|-------------------------------0---3-3---5-5---5-5----|
2|------------------------------------------------------|
1|------------------------------------------------------|


Chorus 1                      
4|---22222222/55555555----------------------------------|
3|---------------------33333333/55555555----------------|
2|------------------------------------------------------|
1|------------------------------------------------------|
                      
4|---22222222/55555555-101010101010-121412121212121212--|
3|------------------------------------------------------|
2|------------------------------------------------------|
1|------------------------------------------------------|

4|---22222222/55555555----------------------------------|
3|---------------------333333-5755555555----------------|
2|------------------------------------------------------|
1|------------------------------------------------------|
[ Tab from: https://www.guitartabs.cc/tabs/l/lindsay_lohan/confessions_of_a_broken_heart_btab.html ]
4|------------------------------------------------------|
3|---00000000-33333333-5--------------------------------|
2|------------------------------------------------------|
1|------------------------------------------------------|


Verse 2               (2x)
4|----------------------------------------------------|
3|---0--0-0-3h-3-3-3/5-5--0-5/7-5-7\--------------------|
2|------------------------------------------------------|
1|------------------------------------------------------|

4|---7-7---5-5---4-4---3-3------------4545454-----------|
3|-------------------------0-0-0-55-5--------5----------|
2|------------------------------------------------------|
1|------------------------------------------------------|


Chorus 2              (3x)
4|---22222222/55555555----------------------------------|
3|---------------------33333333/55555555----------------|
2|------------------------------------------------------|
1|------------------------------------------------------|

4|------------------------------------------------------|
3|---00000000-33333333----------------------------------|
2|---------------------56555555555----------------------|
1|------------------------------------------------------|


the bridge has no bass.

Chorus 3              (3x)
4|---22222222/55555555----------------------------------|
3|---------------------33333333/55555555----------------|
2|------------------------------------------------------|
1|------------------------------------------------------|

4|------------------------------------------------------|
3|---00000000-33333333----------------------------------|
2|---------------------565------------------------------|
1|------------------------------------------------------|