Limp Bizkit - Sour Chords & Tabs

 

Sour Chords & Tabs

Limp Bizkit Chords & Tabs

Version: 3 Type: Bass Tab

Sour Bass Tab

   
Limp Bizkit  - Sour

Bass Tab by Jaysif

Tuning: BEADG

Disclaimer: This tab is not official it was written by me and sounds ok when played
to the song, it may not be what Sam actually plays but hey itís a bit of fun . This
quite an easy song to play, just the three parts. Listen to the song for the timings 
pretty easy to pick up 

Legend:
~ = Let ring.
v = Vibrato.
/ = Slide up.
\ = Slide down.
h = Hammer on.
p = Pull off.
b = Bend
[ Tab from: https://www.guitartabs.cc/tabs/l/limp_bizkit/sour_btab_ver_3.html ]
Riff 1
G)---------------------------------------|
D)----------------4------------------4bb-|
A)-46h666-46h6666---4---4h666-4h6666-----|
E)---------------------------------------|
B)---------------------------------------|

G)-----------------------------------|
D)----------------4------------------|
A)-46h666-46h6666---4---4h666-4h6666-|
E)-----------------------------------|
B)-----------------------------------|

Riff 2
G)-----------6~-------------|
D)-------6-----------4--7-6-|
A)-2-4h----7-----4-6h-------|
E)--------------------------|
B)--------------------------|

Riff 3
G)-------------------------|
D)-------------------------|
A)-------------------------|
E)-------------------------|
b)-44444-44444-22222-00000-|