Limp Bizkit - Hotdog Chords & Tabs

 

Hotdog Chords & Tabs

Limp Bizkit Chords & Tabs

Version: 1 Type: Bass Tab

Hotdog Bass Tab

Intro/Chorus
 |----------------------|
 |----------------------|
 |----------------------|
 |--0-5--0-0-5/7-----|

[ Tab from: https://www.guitartabs.cc/tabs/l/limp_bizkit/hotdog_btab.html ]
Verse
 |--------------------------|
 |--------------------------|
 |--2--5--3--6--2--5--3--0--|
 |--------------------------|


Fill in 4 verse
 |---------|
 |---------|
 |--2---2--|
 |---------|


Interlude
 |--------------------------|
 |--------------------------|
 |--------------------------|
 |--00-00-00-00--5-00-5-00--|