Lily Allen - Little Things Chords & Tabs

 

Little Things Chords & Tabs

Lily Allen Chords & Tabs

Version: 1 Type: Bass Tab

Little Things Bass Tab

Intro
G--------------|-----------------|--------11-12-11-9-8-9-11--------|
D--------------|-----------------|-------------------------9-------|
A--------7-5---|-9-10-10--10-9-7-|-----------------------------9---|
E---5----------|-----------------|--5-5-------------------------7--|
[ Tab from: https://www.guitartabs.cc/tabs/l/lily_allen/little_things_btab.html ]
G--------------|----------------------|---9-----|-----------11-------|
D----99------9-|-7--7-------345--79---|----9-7--|--9-7-----11---11---|
A--9-----9-9---|-----765-----------7--|-----7---|-----10-9--------9--|
E---------7----|----------------------|---------|--------------------|

G-------------------|
D--9--97--7---------|
A----------10-10-10-|
E-------------------|

Verse
G--------7 ---------|--------------|--------7-----|-------------9--|
D-----7-----5----4--|-----7--4-----|-----7-----5--|-----75-4------|
A--7----------5-----|--7--------2--|--7-----------|--7-------------|
E-------------------|--------------|--------------|----------------|

This should get you started, have fun.
Tabbed by    Jochem Bot