Less Than Jake - Shindo Chords & Tabs

 

Shindo Chords & Tabs

Less Than Jake Chords & Tabs

Version: 1 Type: Bass Tab

Shindo Bass Tab

Title: Shindo
Artist: Less Than Jake
Album: Losing Streak
Duration: 2:17
Tuning: Standard (EADG)
Tabbed By: Flexomickey

Intro (0:17-0:24)  X1

G--------------------------------------------------------------------------------|
D--------------------------------------------------------------------------------|
A--33333333-------------11111111-----------------33333333-3----------------------|
E---------------33333333-------------11111111------------------------------------|

Verse 1 (0:25-0:35)  X2
G--------------------------------------------------------------------------------|
D--------------------------------------------------------------------------------|
A----------------------------3333-2222-0000--------------------------------------|
E--33333333-11111111----------------------3333-----------------------------------|

Verse 2 (0:35-0:55)  X1
G--------------------------------------------------------------------------------|
D----3--3------------------77--87------------------------------------------------|
A------------------55-3--58---8---87---------------------------------------------|
E-11--1--1---33------------------------------------------------------------------|
[ Tab from: https://www.guitartabs.cc/tabs/l/less_than_jake/shindo_btab.html ]
G--------------------------------------------------------------------------------|
D----3--3------------------787--1087---------------------------------------------|
A------------------55-3--58----8-------------------------------------------------|
E-11--1--1---33------------------------------------------------------------------|

G---------------------------------------------|
D----3--3----------------787--1087----333333--|(repeat the 3 until it stops)
A----------------55-3--58----8----------------|
E-11--1--1---33-------------------------------|

Intro X4 (0:56-1:18) (That last set of 3s is only on the fourth time, duh.)

Horn/Bass Solo Thingy (1:20-1:30) X1
G---------------------------------------------------------------|
D---55--------33-0h2----2h3p2-3320------------------------------|
A---------------------3------------3----------------------------|
E-3----3----1---------------------------------------------------|

G-----------------------------542------------------------|
D---55--------33-0h2------235-----5----------------------|
A-----------------------3--------------------------------|
E-3----3----1--------------------------------------------|

Verse 2 X1 (1:30-1:50)

Intro X4 (1:51-2:11)

Short Outro (2:11-2:15)
G---------------------------------------------------------------|
D---------------------------------------------------------------|
A-3-3-3-3-3-3-3-3----3-3-----3----------------------------------|
E---------------------------------------------------------------|