Leftover Crack - Gang Control Chords & Tabs

 

Gang Control Chords & Tabs

Leftover Crack Chords & Tabs

Version: 4 Type: Bass Tab

Gang Control Bass Tab

Hey guys. This is my first tab so sorry if its wrong. There are some different beats in
that you will half to just figure out for yourself cause I cant write all of them in
For example, Verse part 2 is alittle tricky and took me a while to figure out. my other 
got a little screwd up (gang control verse 3) so hear is the better one. dont be scared
rate it!


GANG CONTROL
Beat: 212 or 106
INTRO 2x   (0:03)
G:-------------------------------------------]
D:-----764-----------6-976-------------------]
A:-4-74---764------7--7---976----------------]
E:-----------4-5-4-----------9-7-------------]
   1 414314311 2 1 4 124214214 2        <----]FINGERS

VERSE PART 1  2x
G:------------------------------------]
D:-------7-6---6-------6-9-7-6-7------]
A:-----7-----9-----6-7-------------6--]
E:---9-----------7---------------7----]
     4 1 2 1 4 1 2 1 2 1 4 2 1 3 2 1

 VERSE PART 2  2x
G:-----------------------]
D:-----------------------]
A:--4-4-------7-7---9-9-7]
E:------45-54-----7------]
    2 2 12 21 4 4 2 4 4 2

 VERSE PART 3  4x      4th TIME
G:-------------------] G:-------]
D:-22-211-1----------] D:-------]
A:---------44-4002---] A:-2-hold]
E:-------------------] E:-------]
   22 211 144 4002        2

CHORUS 2x
G:--------------------------]
D:---------------------2----]
A:------2-24--2--22---2-----]
E:0--00---------------------]
  0  00 1 14  1  11   11

VERSE PART 1  2x
G:------------------------------------]
D:-------7-6---6-------6-9-7-6-7------]
A:-----7-----9-----6-7-------------6--]
E:---9-----------7---------------7----]
     4 1 2 1 4 1 2 1 2 1 4 2 1 3 2 1

VERSE PART 2  2x
G:-----------------------]
D:-----------------------]
A:--4-4-------7-7---9-9-7]
E:------45-54-----7------]
    2 2 12 21 4 4 2 4 4 2
[ Tab from: https://www.guitartabs.cc/tabs/l/leftover_crack/gang_control_btab_ver_4.html ]
VERSE PART 3   4x        4thTIME
G:---------------------] G:-------]
D:-22-211-1------------] D:-------]
A:---------44-4002-----] A:-2-hold]
E:---------------------] E:-------]
   22 211 144 4002          2


CHORUS 2x
G:-------------------------]
D:---------------------2---]
A:------2-24--2--22---2----]
E:0--00--------------------]
  0  00 1 14  1  11   11


AFTER CHORUS PART 1  2x       2nd TIME
G:--------------------------] G:--------]
D:--------------------------] D:--------]
A:--------4-42-0-00--2-24---] A:--4-----]
E:--0-00--------------------] E:--------]
    0 00  4 41 0 00  1 14         4

AFTER CHORUS PART 2
G:-----------------------------------------]
D:--2-2--------------2-2-4-4--2-------2-2-]
A:----------4-4-0-0-----2------4----------]
E:--------------4--------------------------]
    1 1     2 2 10 0 3 3 24 4  14      1 1

G:-------------------------------------222222222\------]
D:---------------------2222222244444444----------------]
A:----44-4----00-022-2---------------------------------]
E:--------44-4-------------------------------------5\--]
      22 211 100 011 1 1111111144444444111111111   2

CHORUS 2x
G:--------------------------]
D:----------------------2---]
A:--------2-24--2-22---2----]
E:0--00---------------------]
  0  00   1 41  1 11   11

AFTER CHORUS PART 3  2x
G:------------------------------------]
D:------------------------------22-2--]
A:----------44-422-200-000-022-2------]
E:--00-000-0--------------------------]
    00 000 044 411 100 000 022 222 2

END 2x					   2nd TIME
G:-----------------------------------] G:-------]|
D:--22-222-211-1----------------11-1-] D:-2-hold]|
A:--------------22-200-000-022-2-----] A:-------]|
E:-----------------------------------] E:-------]|
    22 222 211 122 200 000 022 211 1      2

-----------------------------------------------------------------------
INTRO 2x
VERSE PART 1  4x
VERSE PART 2  2x
VERSE PART 3  4x
CHORUS 2x
VERSE PART 1  2x
VERSE PART 2  2x
VERSO PART 3  4x
CHORUS 2x
AFTER CHORUS PART 1  2x
AFTER CHORUS PART 2
CHORUS 2x
AFTER CHORUS PART 3  2x
END 2x