Leblanc And Carr - Falling Chords & Tabs

 

Falling Chords & Tabs

Leblanc And Carr Chords & Tabs

Version: 1 Type: Tab

Falling Tab

   
LeBlanc and Carr  Falling
Tabbed by: skooly_d
Email: bigbaddave89@hotmail.com
*Chords comming soon!

Acoustic Guitar
Intro

e|-------0-------0----------0-------0-|---------------0------------------0-|
B|---------1------------------1-------|-------0------------------0---------|
G|-----2-----2------------2-----2-----|-----0---0--------------0---0-------|
D|---2------------------2-------------|---2-------2----------2-------2-----|
A|-0-----------0------0-----------0---|-3-----------3------3-----------3---|
E|------------------------------------|------------------------------------|

Verse

e|-------0-------0----------0-------0-|-------0-------0----------0-------0-|
B|---------1------------------1-------|---------0------------------0-------|
G|-----2-----2------------2-----2-----|-----0-----0------------0-----0-----|
D|---2------------------2-------------|---2------------------2-------------|
A|-0-----------0------0-----------0---|-3-----------3------3-----------3---|
E|------------------------------------|------------------------------------|

Electric Guitar
(use plenty of vibrato)
Intro

e|-10/12-----10-----------------------------------------|
B|---------------10-------12-13-12------8---------------|
G|----------------------------------------9-------------|
D|------------------------------------------------------|
A|------------------------------------------------------|
E|------------------------------------------------------|

Chorus Intro Riff
[ Tab from: https://www.guitartabs.cc/tabs/l/leblanc_and_carr/falling_tab.html ]
e|-10---------------------------------------------------|
B|----10-8----------------------------------------------|
G|---------9-7------------------------------------------|
D|------------------------------------------------------|
A|------------------------------------------------------|
E|------------------------------------------------------|

Solo

e|-7/8--8-7-5-7/8---7/8-7/8--7---7p5--3-----------------|
B|--------------------------------------5---------------|
G|------------------------------------------------------|
D|------------------------------------------------------|
A|------------------------------------------------------|
E|------------------------------------------------------|

e|---5-7-7/8---7/8-7-5-7/8---12p10-8-7------------------|
B|-8-----------------------------------8/10\8-----------|
G|----------------------------------------------9-7-9---|
D|------------------------------------------------------|
A|------------------------------------------------------|
E|------------------------------------------------------|

e|-8/10\8-----------------------------------------------|
B|--------10-8------------------------------------------|
G|-------------9----------------------------------------|
D|------------------------------------------------------|
A|------------------------------------------------------|
E|------------------------------------------------------|

End Chorus

e|-10\8--------------10\8-------------------------------|
B|-------8/10\8------------8/10\8------8/10----8-6-8----|
G|------------------------------------------------------|
D|------------------------------------------------------|
A|------------------------------------------------------|
E|------------------------------------------------------|

| /  slide up
| \  slide down
| h  hammer-on
| p  pull-off
| ~  vibrato

http://www.lennyleblanc.com/index.htm