Las - There She Goes Chords & Tabs

 

There She Goes Chords & Tabs

Las Chords & Tabs

Version: 4 Type: Tab

There She Goes Tab

   
Intro:
           2 Bar Count In:					<--Acc.Gtr. Cue-->

									    D

      [-----------------||--3---5---2---3---|-0---0---0--------||-0---0---0-------]
      [-----------------||---3---3---3---3-|---3---3---3---3-||---3---3---3---3-]
      [---------------3-||------------------|-------------0----||-------------0---]
      [-----------------||------------------|------------------||-----------------]
      [-----------------||-----------------|-----------------||-----------------]
      [-----------------||------------------|------------------||-----------------]


        G           D            Cadd9          D           Cadd9        G6/B
[ Tab from: https://www.guitartabs.cc/tabs/l/las/there_she_goes_tab_ver_4.html ]
     [--3-----5-----2-----3----|-0-----0-----0-----------||-0-----0-----0----------]
     [----3-----3-----3-----3-|----3-----3-----3-----3-||----3-----3-----3-----3-]
     [-------------------------|-------------------0-----||-------------------0----]
     [-------------------------|-------------------------||------------------------]
     [------------------------|------------------------||------------------------]
     [-------------------------|-------------------------||------------------------]


  Am          G/B             Cadd9                         D

[-----3-----5-----3--------|-----3--------3-----3--3--|-----5---5---5---5---5---3-------]
[--5-----5-----------5--3--|--5-----5--3-----5--------|-----7---7---7---7---7---5---3---]
[--------------------------|--------------------------|---------------------------------]
[--------------------------|--------------------------|---------------------------------]
[--------------------------|--------------------------|---------------------------------]
[--------------------------|--------------------------|---------------------------------]