Ladyhawke - Back In The Van Chords & Tabs

 

Back In The Van Chords & Tabs

Ladyhawke Chords & Tabs

Version: 1 Type: Bass Tab

Back In The Van Bass Tab

   
------------------------------------------------------------------
                  Back Of the Van - Ladyhawke
------------------------------------------------------------------

Tabbed By: Ramiye Thavabalasingam
E-mail: red1767@hotmail.co.uk

This is my first tab so tell if II made any mistakes! :)

Tuning: Standard

Riff A:
G ---------------------------------------------------------------
D ---------------------------------------------------------------
A -0-0-0-2-3-3---------------------------------------------------
E -------------5-1-1-1-1-1-1-1-1-3-3-3-3-3-3-3-3-5-5-5-5-5-5-5-5-

Riff B:
G --------------------
D --------------------
A -3-3-3-3-3----------
E -----------5-3-5----

Riff C:
G --------------------
D --------------------
A --------------------
E -5-5-5-5-5-5-5-5----

Riff D:
G --------------------
D --------------------
A -3-3-3-3-3-5-5-5----
E --------------------
[ Tab from: https://www.guitartabs.cc/tabs/l/ladyhawke/back_in_the_van_btab.html ]
Riff E:
G --------------------
D -2-2-2-2-2-2\4-5-5--
A --------------------
E --------------------

Riff F:
G --------------------
D --------------------
A -3-3-3-3-3-3\5-5-5--
E --------------------

Riff G:
G --------------------
D --------------------
A --------------------
E -5-5-5-5-5-7-7-7----

Structure:

Intro: Riff A x2

Verse 1: Riff B x 4
         Riff C x 4
         Riff B x 4
         Riff C x 4

Chorus 1: Riff E x 1
          Riff F x 1
          Riff G x 1
          Riff c x 1
          Riff E x 1
          Riff F x 1
          Riff G x 1
          Riff c x 1

Verse 2: Riff B x 3
         Riff D x 1
         Riff c x 4
         Riff B x 3
         Riff D x 1
         Riff C x 4

Chorus 2: (Chorus 1 x 2)


Bridge: Riff A x 5

Chorus 3: (Chorus 1 x 6)


End: Riff A x 3 (fading)

| / slide up
| \ slide down
| H hammer-on
| P pull-off
| ~ vibrato
| + harmonic
| X Mute note
==================================================================