La Renga - Viva Pappo Chords & Tabs

 

Viva Pappo Chords & Tabs

La Renga Chords & Tabs

Version: 1 Type: Bass Tab

Viva Pappo Bass Tab

INTRO
G|---------------------------------------------------|
D|---------------------------------------------------|
A|-----------------------5---7-/-9-\-7---5---7-7-----|
E|---7---5---7---5---7-------------------------------|


G|---------------------------------------------------|
D|---------------------------------------------------|
A|-----------------------5---7-/-9-\-7---5---4-4-----|
E|---7---5---7-----5---7-----------------------------|
[ Tab from: https://www.guitartabs.cc/tabs/l/la_renga/viva_pappo_btab.html ]
ESTROFA
          (montado en harley,...)
G|-----------------------------------------------------------------|
D|-----------------------------------------------------------------|
A|---7-7-7-7-7-7-7---5-5-5-5-5-5-5---------------------------------|
E|-----------------------------------5-5-5-5-5-5-5---7-7-7-7-7-7-7-|

         (cerveza fresca para su sed...)
G|------------------------------------------------------------------|
D|------------------------------------------------------------------|
A|---5---5---5---5---9---9---9---7---7---7---7------9---7---5-------|
E|--------------------------------------------------------------7---|

         (Quin eres t, forastero?...)
G|---------------------------------------------------------------------------------|
D|-----------------------------------------------------------------7---------------|
A|---5---5---5---9---7---5---7/9---------7---7---7---5---7/9---9-------9---7---5---|
E|---------------------------------------------------------------------------------|