Kutless - All The Words Chords & Tabs

 

All The Words Chords & Tabs

Kutless Chords & Tabs

Version: 2 Type: Bass Tab

All The Words Bass Tab

---------------------------------------------------------------------------
			     ALL THE WORDS  Kutless
---------------------------------------------------------------------------

Tabbed By : Hurm
Tuning: standard 4-string (EADG)

Verse 
G|----------------------------------|
D|----6-------6-4-3-----------------|
A|-4-------4----------8-------8-6-4-|
E|-----------------6------16--------|
                         (1/6)
G|------------------------------------------------------------------|
D|----6-------6-4-3-------------------6-------6-4-3-----------------|
A|-4-------4----------8-------8-6-34-------4----------8-------8-6-4-|
E|-----------------6------16-----------------------6------16--------|

G|----------------------------------|
D|----------------------------------|
A|----4-------6-4-4---4-------6-4-3-|
E|-2------24-------2------24--------|

Chorus
G|----------------------------------|
D|----------------------------------| 2x
A|-44444446-------------------------| 
E|---------222222246666666422222222-|

Verse 2 (same as verse 1)
G|----------------------------------|
D|----6-------6-4-3-----------------|
A|-4-------4----------8-------8-6-4-|
E|-----------------6------16--------|
[ Tab from: https://www.guitartabs.cc/tabs/k/kutless/all_the_words_btab_ver_2.html ]
G|------------------------------------------------------------------|
D|----6-------6-4-3-------------------6-------6-4-3-----------------|
A|-4-------4----------8-------8-6-34-------4----------8-------8-6-4-|
E|-----------------6------16-----------------------6------16--------|

G|----------------------------------|
D|----------------------------------|
A|----4-------6-4-4---4-------6-4-3-|
E|-2------24-------2------24--------|

Chorus 2 (same as chorus 1)
G|----------------------------------|
D|----------------------------------| 2x
A|-44444446-------------------------| 
E|---------222222246666666422222222-|

Bridge
G|------------------------------------------------------------------|
D|------------------------------------------------------------------|
A|-----------------44444446------------------------4444444\---------|
E|-6666666422222224--------444444446666666422222224--------4~-------|

G|-(rest)---------------------------|
D|----------------------------------|
A|----------------------------------|
E|----------------------------------|

Chorus 3 and outro
G|----------------------------------|
D|----------------------------------| 2x
A|-44444446-------------------------| 
E|---------222222246666666422222222-|

G|------------------------------------------|
D|------------------------------------------|
A|-44444448------------------------4~-------|
E|---------222222246666666422222222---------|


| /  slide up
| \  slide down
| ~  let ring

===========================================================================