Kt Tunstall - Suddenly I See Chords & Tabs

 

Suddenly I See Chords & Tabs

Kt Tunstall Chords & Tabs

Version: 3 Type: Chords

Suddenly I See Chords

   
Suddenly I See- KT Tunstall

Intro/Verse Riff:

E|----------0----------0-------------0-----------------------------------------|
B|----------3----------3-------------3-----------------------------------------|
G|----------2----------2-------------2-----------------------------------------|
D|----0-----------------------0------------------------------------------------|
A|---------------3--------------------------3----3-------3---------------------|
E|-------------------------------------------------------------3---------------|

Intro:
Guitar 2: G2 Bridge Riff (1x)
--------
Guitar 1: Intro/Verse Riff
Guitar 2: G2 Bridge Riff
					(2x)
Verse:

Verse riff -------------------
Her face is a map of the world
--------------------.
Is a map of the world,
Verse Riff----------------------
You can see she's a beautiful girl
--------------------.
She's a beautiful girl
G		  A		     F#m	       Bm
Everything around her is a silver pool of light
G		       A		     	    F#m	Bm
The people who surround her feel the benefit of it
		    G
It makes you calm
       Gm				      D
She holds you captivated in her palm

Chorus:
	        Bm                  F#
Suddenly I see (Suddenly I see)
	  G		     D
This is what I wanna be
                 Bm		     F#
Suddenly I see (Suddenly I see)

G			C			Bm       F#
Why the hell it means so much to me
	  G		     D
This is what I wanna be
                 Bm		     F#
Suddenly I see (Suddenly I see)
G			C
Why the hell it means so much to me

Intro/Verse Riff 2x

Verse 2:

Verse Riff ----------------
I feel like walking the world
----------------------.
Like walking the world
Verse Riff------------------------
You can hear she's a beautiful girl
-------------------
She's a beautiful girl
       G                    A                    F#m			Bm
She fills up every corner like she's born in black and white
G			A			  F#m	 Bm
Makes you feel warmer when you're trying to remember
		G
What you heard
	Gm					     D
She likes to leave you hanging on her word


Chorus:
[ Tab from: https://www.guitartabs.cc/tabs/k/kt_tunstall/suddenly_i_see_crd_ver_3.html ]
	        Bm                  F#
Suddenly I see (Suddenly I see)
	  G		     D
This is what I wanna be
                 Bm		     F#
Suddenly I see (Suddenly I see)
G			C			Bm       F#
Why the hell it means so much to me
	  G		     D
This is what I wanna be

Bm		     F#
Suddenly I see (Suddenly I see)
G			C
Why the hell it means so much to me


Bridge:

Guitar 1 Bridge Riff (repeat throughout bridge/interlude):
E|-----------------------------------------------------------------------------|
B|-------------1--------1--------1--------1------------------------------------|
G|------0h2--------2--------2--------2-----------------------------------------|
D|-----------------------------------------------------------------------------|
A|-----------------------------------------------------------------------------|
E|-----------------------------------------------------------------------------|

Guitar 2 Bridge Riff (repeat throughout bridge/interlude):
E|-----------------------------------------------------------------------------|
B|-----------------------------------------------------------------------------|
G|-----------------------------------------------------------------------------|
D|----0-----------------------0------------------------------------------------|
A|---------------3--------------------------3----3-------3---------------------|
E|-------------------------------------------------------------3---------------|

And she's taller than most

And she's looking at me

I can see her eyes looking from a page in a magazine

Oh she makes me feel like I could be a tower

A big strong tower


Interlude (Repeat 4x):


She got the power to be

The power to give

The power to see

Yeah yeah

Chorus:


	        Bm                  F#
Suddenly I see (Suddenly I see)
	  G		     D
This is what I wanna be
                 Bm		     F#
Suddenly I see (Suddenly I see)
G			C			Bm       F#
Why the hell it means so much to me

	  G		     D
This is what I wanna be
                 Bm		     F#
Suddenly I see (Suddenly I see)
G			C			D
Why the hell it means so much to me

Chords:

	F#		F#m		Bm	 	Gm
E|-----2-------------2-----------2------------3------------------------------|
B|-----2-------------2-----------3------------3------------------------------|
G|-----3-------------2-----------4*-----------3------------------------------|
D|-----4*------------4*---------4*-----------5*------------------------------|
A|-----4*------------4*---------2*-----------5*------------------------------|
E|-----2*------------2*---------2-------------3*-----------------------------|

* Starred notes above ^ on the tabbed chords can be played by themselves for power chords.