Kt Tunstall - Someday Soon Chords & Tabs

 

Someday Soon Chords & Tabs

Kt Tunstall Chords & Tabs

Version: 1 Type: Tab

Someday Soon Tab

   
-------------------------------------------------------------------------------
		Someday Soon  KT Tunstall
-------------------------------------------------------------------------------
Tabbed by: Jonlad45
Tuning: Standard

This is the intro/verse of Someday Soon by KT Tunstall, did it as I couldn't find one. 
to the rhythm on the record and just put soul into it.. =D the rest is hopefully coming 
:S
[ Tab from: https://www.guitartabs.cc/tabs/k/kt_tunstall/someday_soon_tab.html ]
e|-0-2----2---5------5----5-----5----5----7---3------3-----2-----2-----2-----2----2----0--|
B|-------3----------7----------7--------------------3-----------3-----------3-------------|
G|------2----2----7-----7-----7-----7----7--------2------2----2------2----2-----2----2----|
D|---0----------------------------------------0-------------------------------------------|
A|----------------------------------------------------------------------------------------|
E|----------------------------------------------------------------------------------------|

Make any alterations cos his is not perfect at all
just the basis :-)

| /  slide up
| \  slide down
| h  hammer-on
| p  pull-off
| ~  vibrato
| +  harmonic
| x  Mute note
===============================================================================