Kt Tunstall - Hold On Chords & Tabs

 

Hold On Chords & Tabs

Kt Tunstall Chords & Tabs

Version: 4 Type: Chords

Hold On Chords

   
Bit tricky to play the middle-8, but can be managed.

Intro x4
E|--x--x---x--x-|
B|--x--x---x--x-|
G|--x--x---x--x-|
D|--x--x---x--x-|
A|--0--0---0--0-|
E|--x--x---x--x-|

Verse 1 (pt1)
E|--x--x---x--x---x--x---x--x---x--x---x--x---x--x---x--x-----|
B|--x--x---x--x---x--x---x--x---x--x---x--x---x--x---x--x-----|
G|--x--x---x--x---x--x---x--x---x--x---x--x---x--x---x--x-----|
D|--x--x---x--x---x--x---x--x---x--x---x--x---x--x---x--x-----|
A|--0--0---0--0---0--0---0--0---0--0---0--0---0--0---x--x-----|
E|--x--x---x--x---x--x---x--x---x--x---x--x---x--x---0--0-----|    x2

Verse 1 (pt2)
Am       Em   C                    Dsus2
  Underneath, I felt the fire of a burning question,
Am         Em      C                Dsus2
  Tearing me apart, right from the very start,
Am           Em             C                       Dsus2
  And now I see, that it don't take a trick of the light to excite me,
Am         Em           E
  So strong, for so long, you'll see

Chorus
Am          Dm
Hold on, to what you,
     E7     Am
Been given lately
Am          Dm
Hold on, to what you,
E7          Am
Know you got
Am          Dm
Hold on, to what you,
     E7     Am
Been given lately
Am          Dm
Hold on, coz the world will turn
           E7        Am
If you're ready or not

Am Dm E7 Am
Am Dm E
[ Tab from: https://www.guitartabs.cc/tabs/k/kt_tunstall/hold_on_crd_ver_4.html ]
Verse 2
Am          Em  C                    Dsus2
  Simplicity, a heart of gold an old head and young shoulders
Am           Em    C          Dsus2
  Quiet and lovely, becoming part of me,
Am            Em          C                     Dsus2
  And now I see, from a handful of names and a thousand faces,
Am         Em       E
  One light, burning, fiercely

Bridge
I was tired of January, tired of June
E|--xx---xx---xx---x--x-|
B|--xx---xx---xx---x--x-|
G|--xx---xx---xx---x--x-|
D|--xx---xx---xx---x--x-|
A|--00---22---33---5--5-|
E|--xx---xx---xx---x----|x

I felt a change a-comin, woah oh oh oh
E|--xx---xx---xx---x--x-|
B|--xx---xx---xx---x--x-|
G|--xx---xx---xx---x--x-|
D|--xx---xx---xx---x--x-|
A|--00---22---33---5--5-|
E|--xx---xx---xx---x----|x

I was tired of January, tired of June,
E|--xx---xx---xx---x--x-|
B|--xx---xx---xx---x--x-|
G|--xx---xx---xx---x--x-|
D|--xx---xx---xx---x--x-|
A|--00---22---33---5--5-|
E|--xx---xx---xx---x--x-|

I felt a change a-comin, woah oh yeah
E|--xx---xx---xx---x--x-|
B|--xx---xx---xx---x--x-|
G|--xx---xx---xx---x--x-|
D|--xx---xx---xx---x--x-|
A|--00---22---33---5--5-|
E|--xx---xx---xx---x--x-|

Am            Em               C                    Dm
  I felt a change a-comin I felt a change a-comin
Am            Em                E
  I felt a change a-comin soon, woah oh oh

Chorus x2

Finish with strumming, covering all strings.

E7 can be replaced with E, but I think E7 sounds better.