Kroke - Time Chords & Tabs

 

Time Chords & Tabs

Kroke Chords & Tabs

Version: 1 Type: Bass Tab

Time Bass Tab

Kroke - Time

Originally it is played with a contrabass, nevertheless you can adopt this for your electric bass.
"x" means repeat, not "mute note". E.g. x6 = repeat six times

0:10  0:27

      G---------------------------|
      D---------------------------|
A-3/  A5---------5------------3--| x6
      E-------------------5-------|

G------------------------------|
D------------------------------|
A5-----------5-------3------5-|
E-------------------5----------|

0:28-52
           G-------------------------|
           D-------------------------|
A-8/66/3  A5-----------5-------3---| x7
           E-------------------5-----|


G-----------------------------|
D-----------------------------|
A5-----------5---3---7-------|
E-----------------------------|

G---------------------------|
D---------------------------|
A---8-----------8------7-8--|
E-------------------8-------|

0:53-1:10

           G-------------------------|
           D-------------------------|
A-8/66/3  A5-----------5-------3---| x6
           E-------------------5-----|

G-----------------------------|
D-----------------------------|
A5-----------5-------3--5----|
E-------------------5---------|

1:11-1:34
           G-------------------------|
           D-------------------------|
A-8/66/3  A5-----------5-------3---| x7
           E-------------------5-----|


G-----------------------------|
D-----------------------------|
A5-----------5---3---7-------|
E-----------------------------|

G---------------------------|
D---------------------------|
A---8-----------8------7-8--|
E-------------------8-------|

1:36-1:48
G------------------------------|
D------------------------------|
A---10-----------10------9-----| x2
E--------------------10--------|

G------------------------------|
D------------------------------|
A---10-----------10----7-------|
E---------------------8--------|

G---------------------------|
D---------------------------|
A---8-----------8------7----|
E-------------------8-------|

G---------------------------|
D---------------------------|
A---8-----------8------7-8--|
E-------------------8-------|


1:49-2:07
            G-------------------------|
            D-------------------------|
A-8/66/3   A5-----------5-------3---| x6
            E-------------------5-----|

G---------------------------|
D---------------------------|
A---5-----------5------3--5-|
E-------------------5-------|

2:08-2:32
           G-------------------------|
           D-------------------------|
A-8/66/3  A5-----------5-------3---| x7
           E-------------------5-----|

G-----------------------------|
D-----------------------------|
A5-----------5---3---7-------|
E-----------------------------|

G---------------------------|
D---------------------------|
A---8-----------8------7--8-|
E-------------------8-------|

2:34-3:05
G------------------------------|
D------------------------------|
A---10-----------10------9-----| x2
E--------------------10--------|

G------------------------------|
D------------------------------|
A---10-----------10----7-------|
E---------------------8--------|

G---------------------------|
D---------------------------|
A---8-----------8------7----|
E-------------------8-------|
[ Tab from: https://www.guitartabs.cc/tabs/k/kroke/time_btab.html ]
G---------------------------|
D---------------------------|
A---8-----------8------7-8--|
E-------------------8-------|

           G-------------------------|
           D-------------------------|
A-8/66/3  A5-----------5-------3---| x2
           E-------------------5-----|

G------------------------------|
D------------------------------|
A---10-----------10------9-----| x2
E--------------------10--------|

G------------------------------|
D------------------------------|
A---10-----------10----7-------|
E---------------------8--------|

G---------------------------|
D---------------------------|
A---8-----------8------7----|
E-------------------8-------|

G---------------------------|
D---------------------------|
A---8-----------8------7-8--|
E-------------------8-------|


3:06-3:24
           G-------------------------|
           D-------------------------|
A-8/66/3  A5-----------5-------3---| x6
           E-------------------5-----|

G-----------------------------|
D-----------------------------|
A5-----------5-------3--5----|
E-------------------5---------|


3:25-5:02
           G-------------------------|
           D-------------------------|
A-8/66/3  A5-----------5-------3---| x7
           E-------------------5-----|

G-----------------------------|
D-----------------------------|
A5-----------5---3---7-------|
E-----------------------------|

G---------------------------|
D---------------------------|
A---8-----------8------7----|
E-------------------8-------|

G---------------------------|
D---------------------------|
A---8-----------8------9----|
E-------------------10------|

G------------------------------|
D------------------------------|
A---10-----------10------9-----| x2
E--------------------10--------|

G------------------------------|
D------------------------------|
A---10-----------10----7-------|
E---------------------8--------|

G---------------------------|
D---------------------------|
A---8-----------8------7----|
E-------------------8-------|

G---------------------------|
D---------------------------|
A---8-----------8------7-8--|
E-------------------8-------|

           G-------------------------|
           D-------------------------|
A-8/66/3  A5-----------5-------3---|
           E-------------------5-----|

G-------------------------|
D-------------------------|
A5-----------5-------9---|
E-------------------5-----|

G------------------------------|
D------------------------------|
A---10-----------10------9-----| x2
E--------------------10--------|

G------------------------------|
D------------------------------|
A---10-----------10----7-------|
E---------------------8--------|

G---------------------------|
D---------------------------|
A---8-----------8------7----|
E-------------------8-------|

G---------------------------|
D---------------------------|
A---8-----------8------7-8--|
E-------------------8-------|

           G------------------------------------------|
           D------------------------------------------|
A-8/66/3  A5-----------5-------3--- x18     --------| few last repetitions
           E-------------------5----------------------|                play quietly

tabbed by Lukasz Stasielowicz
If you have any questiones, commments etc. you can reach me via email: 
zajacmuseomaniak{at}gmail.com


http://www.kroke.krakow.pl/html_en/main_en.html