Korn - Alone I Break Chords & Tabs

 

Alone I Break Chords & Tabs

Korn Chords & Tabs

Version: 5 Type: Tab

Alone I Break Tab

-------------------------------------------------------------------------------
			     Alone I break - Korn
-------------------------------------------------------------------------------
Tabbed by: nonpoint42
Email: tdetsgrob@yahoo.com

Tuning: standard a step and a half down

alright, you probably know that this song is on two seven string guitars tuned down.
but I donít have one and most other people donít either. so instead of tuning my guitar
down to an Gb I figured to song out in standard. it isnt quite deep enough but it gets
the job done enjoy.

   intro and first part of verse
e|---------------------------------------------------------------------------|
B|---------------------------------------------------------------------------|
G|---------------------------------------------------------------------------|
D|-------2-2-------2-2------3-3----------------------------------------------|
A|--2-2-------2-2-------2-2--------------------------------------------------|
E|--2-2-------2-2-------2-2--------------------------------------------------|

   second part of verse
e|---------------------------------------------------------------------------|
B|------------0--------------------------------------------------------------|
G|--------------------------5------------------------------------------------|
D|---------------------------------------------------------------------------|
A|-------5------------3----------0-------------------------------------------|
E|---------------------------------------------------------------------------|

 the next part is all synthesizers and bass
  but you can play something like this
[ Tab from: https://www.guitartabs.cc/tabs/k/korn/alone_i_break_tab_ver_5.html ]
e|---------------------------------------------------------------------------|
B|---------------------------------------------------------------------------|
G|---------------------------------------------------------------------------|
D|---------------------------------------------------------------------------|
A|--0-0-0-----------0-0-0----------------------------------------------------|
E|--0-0-0--5-5-6-7--0-0-0---7-7-5--------------------------------------------|


  then thereís a little pre-chorus thing that goes like this twice
e|---------------------------------------------------------------------------|
B|---------------------------------------------------------------------------|
G|---------------------------------------------------------------------------|
D|-9-9-9-9-9-9-9-9-7-7-7-7-7-7-7-7-------------------------------------------|
A|-9-9-9-9-9-9-9-9-7-7-7-7-7-7-7-7-------------------------------------------|
E|-7-7-7-7-7-7-7-7-5-5-5-5-5-5-5-5-------------------------------------------|

  chorus (notes in parenthesis are played by guitar two with a chorus-ish effect)
e|----------------(12)-------------(12)----------------------------------------|
B|-(12)-----ó--------------------------------------(10)-----(9)-(10)-----------|
G|---------------------------------7-7-7-7-7-7-7-7-----------------------------|
D|-9-9-9-9-9-9-9-9-7-7-7-7-7-7-7-7-7-7-7-7-7-7-7-7-5-5-5-5-5-5-5-5-------------|
A|-9-9-9-9-9-9-9-9-7-7-7-7-7-7-7-7-5-5-5-5-5-5-5-5-5-5-5-5-5-5-5-5-------------|
E|-7-7-7-7-7-7-7-7-5-5-5-5-5-5-5-5------------------3-3-3-3-3-3-3-3------------|

 bridge use another chorus-ish effect
e|-14---------14--14----------------------12--11-------------------------------|
B|-12---------12--12---------7--6---------13--12-------------------------------|
G|-14---------14--13---------4--4---------12--11-------------------------------|
D|-13---------13--14-----------------------------------------------------------|
A|-----------------------------------------------------------------------------|
E|-----------------------------------------------------------------------------|