Kjwan - Sa Ilalim Chords & Tabs

 

Sa Ilalim Chords & Tabs

Kjwan Chords & Tabs

Version: 1 Type: Bass Tab

Sa Ilalim Bass Tab

   
Sa Ilalim Bass Tab by Kjwan
Album: 2 step marv
Tab by: Ian Bernard Gilay -> fritzoy

Hello guys!! Hello www.ultimate-guitar!!
This song Sa Ilalim is from their new release album of kjwan, titled 2 step marv. It is
nice song and a nice album and it really rock you on.. well its 90% accurate.. paki rate
po..thnx.. shakewell_band@yahoo.com..iansfab@yahoo.com..

Legend:
b = bend

Intro: (repeat 2x)
G|------------------------------------------------------------------|
D|------------------------------------------------------------------|
A|--1-1-1-1-1-1-1-1-1-1-1-1-1-1-1-1---------------------------------|
E|----------------------------------2-2-2-2-2-2-2-2--1-1-1-1-1--4-4-|

Verse 1: (Repeat 2x)
G|----------------------------------------------------------|
D|----------------------------------------------------------|
A|----------------------------------------------------------|
E|--6-6-4--6-6-4--6-6-4--6-6-4--2-2-1--2-2-1--2-2-1--2-2-4--|
        b      b      b      b      b      b      b

Chorus:
 repeat 2x
G|------------------------------------------------------------------|
D|------------------------------------------------------------------|
A|--1-1-1-1-1-1-1-1-1-1-1-1-1-1-1-1---------------------------------|
E|----------------------------------2-2-2-2-2-2-2-2--1-1-1-1-1--4-4-|

G|----------------------------------------------------------|
D|----------------------------------------------------------|
A|----------------------------------------------------------|
E|--6-6-4--6-6-4--6-6-4--6-6-4--2-2-1--2-2-1--2-2-1--2-2-4--|
        b      b      b      b      b      b      b
[ Tab from: https://www.guitartabs.cc/tabs/k/kjwan/sa_ilalim_btab.html ]
Verse 2:
 repeat 2x
G|----------------------------------------------------------|
D|----------------------------------------------------------|
A|----------------------------------------------------------|
E|--6-6-4--6-6-4--6-6-4--6-6-4--2-2-1--2-2-1--2-2-1--2-2-4--|
        b      b      b      b      b      b      b

Repeat Chorus:
 repeat 2x
G|------------------------------------------------------------------|
D|------------------------------------------------------------------|
A|--1-1-1-1-1-1-1-1-1-1-1-1-1-1-1-1---------------------------------|
E|----------------------------------2-2-2-2-2-2-2-2--1-1-1-1-1--4-4-|

 repeat 2x
G|------------------------------------------------------------------|
D|------------------------------------------------------------------|
A|--1-1-1-1-1-1-1-1-1-1-1-1-1-1-1-1---------------------------------|
E|----------------------------------2-2-2-2-2-2-2-2--1-1-1-1-1--4-4-|

Verse 3:
 same as verse 1 but there is a pause part so listen carefully to the song.

Repeat Chorus:
 repeat 4x
G|------------------------------------------------------------------|
D|------------------------------------------------------------------|
A|--1-1-1-1-1-1-1-1-1-1-1-1-1-1-1-1---------------------------------|
E|----------------------------------2-2-2-2-2-2-2-2--1-1-1-1-1--4-4-|

G|----------------------------------------------------------|
D|----------------------------------------------------------|
A|----------------------------------------------------------|
E|--6-6-4--6-6-4--6-6-4--6-6-4--2-2-1--2-2-1--2-2-1--2-2-4--|
        b      b      b      b      b      b      b

-end-

Thatís all..im not that sure about the lyrics..=)..but im sure about the tabs..just want
have lots of friends to jam with or just friends add us pls. in MySpace
in
 Friendster -> shakewell_band@yahoo.com , iansfab@yahoo.com.
Thnx guys 4 ur time..pls rate..thnx..!!=)

Hello to my baby cindy..love you always and 4ever..=)
Ingat ka always..=)..muuuaaaah..

Hello to my band shakewell

sha>|ewe||
ian bernard (lead, rhythm, vocals)
jade mark (rhythm, 2nd voice)
james (bass)
jon alec(drums)

Thank you www.ultimate-guitar.com ..
Love ya guys..luv ya ol..
Ty ty ty ty tyÖ