Kjwan - Pintura Chords & Tabs

 

Pintura Chords & Tabs

Kjwan Chords & Tabs

Version: 5 Type: Tab

Pintura Tab

   
Song      : Pintura
Band      : Kjwan
Tabbed by : Brandon Llapitan
E-Add     : brandon_rakista@yahoo.com
Cp No.    : 09163642069
Tuning    : Flat Tuning (eb,Bb,Gb,Db,Ab,eb)
Legend    : b=bend | ~=vibrato | r=release | .=Palm mute | h=hammer | p=pull | /=slide up | \=slide down |
Date      : 1/31/07


Intro :
eb-------------------------------|------------------------------|
Bb-------------------------------|------------------------------|
Gb-9~--9---10~--9---10~--9---10~-|------------------------------|
Db-0~----9--------9--------9-----|------------------------------|
Ab-0~----------------------------|-3-5-3-0----------------------|
Eb-0~----------------------------|---------5~-5-3-5-3-5b7-------|

eb-------------------------------|------------------------------|
Bb-------------------------------|------------------------------|
Gb-------------------------------|------------------------------|
Db-------------------------------|------------------------------|
Ab-3-5-3-0-----------------------|-3-5-3-0----------------------|
Eb---------5~-5-3-5-3-5b7-5-3-0~-|---------5~-5-3-5-3-5b7-00-17\|
                                                          ..
[ Tab from: https://www.guitartabs.cc/tabs/k/kjwan/pintura_tab_ver_5.html ]
eb-------------------------------|
Bb-------------------------------|
Gb-------------------------------|
Db-------------------------------| (2x)
Ab-3-5-3-0-----------------------|
Eb---------5~-5-3-5-3-5b7-5-3-0~-|
                         
Verse : 
eb---------------------------------|
Bb---------------------------------|
Gb---------------------------------| (7x)
Db--------------------------4------|
Ab---3h5---3h5---3~---33h5---5-3~-|
Eb-0-----0-----0----0--------------|
   .     .     .    .    
Then..
eb----------------------------|
Bb----------------------------|
Gb----------------------12b14-|
Db----------3~-5-6-7-10-12b13-|
Ab---0--3-5-------------------|
Eb-0--------------------------|
   . .

Chorus : 
eb------------------------------|
Bb------------------------------|
Gb------------------------------|
Db------------------------------|
Ab-3-5-3-0----------------------|
Eb---------5~-5-3-5-3-5b7-------|

eb-------------------------------|------------------------------|
Bb-------------------------------|------------------------------|
Gb-------------------------------|------------------------------|
Db-------------------------------|------------------------------|
Ab-3-5-3-0-----------------------|-3-5-3-0----------------------|
Eb---------5~-5-3-5-3-5b7-5-3-0~-|---------5~-5-3-5-3-5b7-00-17\|
                                                          ..
eb-------------------------------|
Bb-------------------------------|
Gb-------------------------------|
Db-------------------------------| (2x)
Ab-3-5-3-0-----------------------|
Eb---------5~-5-3-5-3-5b7-5-3-0~-|

Then..
eb-----|
Bb-----|
Gb-----|
Db-5b7-|
Ab-5b7-|
Eb-----|

Solo :

eb-----------------------------------------------------------------|
Bb-----------------------------------------------------------------|
Gb-----------------------------------------------------------------|
Db-10/12~-9h10p9h10---7h9h10---5h7h9---4h5h7---4h5h7-7~------------|
Ab------------------------------------------------------9b10r9~~~~-|
Eb-----------------------------------------------------------------|

Rock on!!! the most accurate guitar tab of this song!95%