Kjwan - One Look Chords & Tabs

 

One Look Chords & Tabs

Kjwan Chords & Tabs

Version: 1 Type: Tab

One Look Tab

   
One Look Tab by Kjwan
Album: 2 Step Marv
Tab by: Ian Bernard Gilay -> fritzoy

Hello guys!! Hello www.ultimate-guitar!!
This song One Look is from their new release album of kjwan, titled 2 step marv. It is a 
song and a nice album and it really rock you on.. well its 90% accurate.. paki rate lng 
shakewell_band@yahoo.com..iansfab@yahoo.com..

Legend:
b = bend
h = hammer on
p = pull off
Vp = up strumming with pause

Intro:
e|--------------11-9-7-7h9-7-11-11-9-9-7-7h9p7-|
B|----5-5-7-7-9-------------9-----------9------|
G|-5h7-7---------------------------------------|
D|---------------------------------------------|
A|---------------------------------------------|
E|---------------------------------------------|

e|--------------11-9-7-7h9-7-11-11-9-9-7-9b----|
B|----5-5-7-7-9-------------9-----------9------|
G|-5h7-7---------------------------------------|
D|---------------------------------------------|
A|---------------------------------------------|
E|---------------------------------------------|

Verse 1:
e|-4-------------2-------------4-------------2--------|
B|-4--4----------2--2----------4--4----------2--2-----|
G|-5----5--------3----3--------5----5--------3----3---|
D|-6------6------4------4------6------6------4------4-|
A|-6-------------4-------------6-------------4--------|
E|-4-------------2-------------4-------------2--------|

e|-4-------------2-------------4-------------2--------|
B|-4--4----------2--2----------4--4----------2--------|
G|-5----5--------3----3--------5----5--------3--------|
D|-6------6------4------4------6------6------4--------|
A|-6-------------4-------------6-------------4--------|
E|-4-------------2-------------4-------------2--------|

Chorus:
One look..
           VpVp    VpVp    VpVp    VpVp
        e|-4-4-----4-4-----2-2-----2-2-|
        B|-4-4-----4-4-----2-2-----2-2-|
        G|-5-5-----5-5-----3-3-----3-3-|
        D|-6-6-----6-6-----4-4-----4-4-|
        A|-6-6-----6-6-----4-4-----4-4-|
        E|-4-4-----4-4-----2-2-----2-2-|
Blowing down..
e|-4-----------------------2--2----|
B|-4----4------------------2---2---|
G|-5---5-------------------3-3--3--|
D|-6--6--------------------4-----4-|
A|-6-6---------------------4-------|
E|-4-----------------------2-------|

And its a mystery...(light strumming)
          e|-4-4-4-4-4-4-4-4--2-2-2-2-2-2-2-2-|
          B|-4-4-4-4-4-4-4-4--2-2-2-2-2-2-2-2-|
          G|-5-5-5-5-5-5-5-5--3-3-3-3-3-3-3-3-|
          D|-6-6-6-6-6-6-6-6--4-4-4-4-4-4-4-4-|
          A|-6-6-6-6-6-6-6-6--4-4-4-4-4-4-4-4-|
          E|-4-4-4-4-4-4-4-4--2-2-2-2-2-2-2-2-|

e|-4-------------2--------|
B|-4--4----------2--2-----|
G|-5----5--------3----3---|
D|-6------6------4------4-|
A|-6-------------4--------|
E|-4-------------2--------|

Repeat Intro:
e|--------------11-9-7-7h9-7-11-11-9-9-7-7h9p7-|
B|----5-5-7-7-9-------------9-----------9------|
G|-5h7-7---------------------------------------|
D|---------------------------------------------|
A|---------------------------------------------|
E|---------------------------------------------|

e|--------------11-9-7-7h9-7-11-11-9-9-7-9b----|
B|----5-5-7-7-9-------------9-----------9------|
G|-5h7-7---------------------------------------|
D|---------------------------------------------|
A|---------------------------------------------|
E|---------------------------------------------|
[ Tab from: https://www.guitartabs.cc/tabs/k/kjwan/one_look_tab.html ]
Verse 2:
e|-4-------------2-------------4-------------2--------|
B|-4--4----------2--2----------4--4----------2--------|
G|-5----5--------3----3--------5----5--------3--------|
D|-6------6------4------4------6------6------4--------|
A|-6-------------4-------------6-------------4--------|
E|-4-------------2-------------4-------------2--------|

e|-4-------------2-------------4-------------2--------|
B|-4--4----------2--2----------4--4----------2--------|
G|-5----5--------3----3--------5----5--------3--------|
D|-6------6------4------4------6------6------4--------|
A|-6-------------4-------------6-------------4--------|
E|-4-------------2-------------4-------------2--------|

Repeat Chorus:
One look..
           VpVp    VpVp    VpVp    VpVp
        e|-4-4-----4-4-----2-2-----2-2-|
        B|-4-4-----4-4-----2-2-----2-2-|
        G|-5-5-----5-5-----3-3-----3-3-|
        D|-6-6-----6-6-----4-4-----4-4-|
        A|-6-6-----6-6-----4-4-----4-4-|
        E|-4-4-----4-4-----2-2-----2-2-|
Blowing down..
e|-4-----------------------2--2----|
B|-4----4------------------2---2---|
G|-5---5-------------------3-3--3--|
D|-6--6--------------------4-----4-|
A|-6-6---------------------4-------|
E|-4-----------------------2-------|

And its a mystery...(light strumming)
          e|-4-4-4-4-4-4-4-4--2-2-2-2-2-2-2-2-|
          B|-4-4-4-4-4-4-4-4--2-2-2-2-2-2-2-2-|
          G|-5-5-5-5-5-5-5-5--3-3-3-3-3-3-3-3-|
          D|-6-6-6-6-6-6-6-6--4-4-4-4-4-4-4-4-|
          A|-6-6-6-6-6-6-6-6--4-4-4-4-4-4-4-4-|
          E|-4-4-4-4-4-4-4-4--2-2-2-2-2-2-2-2-|

e|-4-------------2--------|
B|-4--4----------2--2-----|
G|-5----5--------3----3---|
D|-6------6------4------4-|
A|-6-------------4--------|
E|-4-------------2--------|

Bridge:
(the numbers with . means light pick)
e|-4----------2---2.-------4----------2--2.----|
B|-4----4.----2----2.------4----4.----2---2.---|
G|-5---5.-----3-3.--3.-----5---5.-----3-3.-3.--|
D|-6--6.------4------4.----6--6.------4-----4.-|
A|-6-6.-------4------------6-6.-------4--------|
E|-4----------2------------4----------2--------|

e|-4----------2---2.-------4----------2--2-2-2-2-2-|
B|-4----4.----2----2.------4----4.----2--2-2-2-2-2-|
G|-5---5.-----3-3.--3.-----5---5.-----3--3-3-3-3-3-|
D|-6--6.------4------4.----6--6.------4--4-4-4-4-4-|
A|-6-6.-------4------------6-6.-------4--4-4-4-4-4-|
E|-4----------2------------4----------2--2-2-2-2-2-|

Repeat Chorus:
(no guitar and bass, drums and vocals only)
Enter to the part:
"and its a mystery.."
e|-4-------------2-------------4-------------2--2-2-2-2-2-|
B|-4--4----------2--2----------4--4----------2--2-2-2-2-2-|
G|-5----5--------3----3--------5----5--------3--3-3-3-3-3-|
D|-6------6------4------4------6------6------4--4-4-4-4-4-|
A|-6-------------4-------------6-------------4--4-4-4-4-4-|
E|-4-------------2-------------4-------------2--2-2-2-2-2-|

Repeat Chorus and Intro

Then End -

Note: its nice to play this song if you have a chorus gadget.
 because if you do use chorus gadget, its clean, clear and sounds
 awesome..=)

Thatís all..im not that sure about the lyrics..=)..but im sure about the tabs..just want 
have lots of friends to jam with or just friends add us pls. in MySpace 
in
 Friendster -> shakewell_band@yahoo.com , iansfab@yahoo.com.
Thnx guys 4 ur time..pls rate..thnx..!!=)

Hello to my baby cindy..love you always and 4ever..=)
Ingat ka always..=)..muuuaaaah..

Hello to my band shakewell

sha>|ewe||
ian bernard (lead, rhythm, vocals)
jade mark (rhythm, 2nd voice)
james (bass)
jon alec(drums)

Thank you www.ultimate-guitar.com ..
Love ya guys..luv ya ol..
Ty ty ty ty tyÖ