Kisschasy - Tiny Plastic Cup Chords & Tabs

 

Tiny Plastic Cup Chords & Tabs

Kisschasy Chords & Tabs

Version: 1 Type: Bass Tab

Tiny Plastic Cup Bass Tab

   
-------------------------------------------------------------------------------
			     Tiny Plastic Cup - Kisschasy
-------------------------------------------------------------------------------

Tabbed By: Jordan Duffy
e-mail: jordanswe@hotmail.com
[ Tab from: https://www.guitartabs.cc/tabs/k/kisschasy/tiny_plastic_cup_btab.html ]
Tuning: Standard
Chorus
G|-----------------------------------------------------------------|
D|-----------------------------------------------------------------|
A|-----------------------------------------------------------------|
E|--3-3-33-1-1-4-444-----------------------------------------------|
Verse
G|-----------------------------------------------------------------|
D|-----------------------------------------------------------------|
A|------11-----11-----11------11------11-------11------11-----11---|
E|--33-----33-----33-----33------11-------11------11------11-------|
Interlude (Let the world will never see ectÖ)
G|-----------------------------------------------------------------|
D|-----------------------------------------------------------------|
A|---6-----3-------------------------------------------------------|
E|-----------------------------------------------------------------|
Pre-chorus (Always after interlude)
G|-----------------------------------------------------------------|
D|-----------------------------------------------------------------|
A|----33-33--------------------------------------------------------|
E|-----------------------------------------------------------------|
Pre Bridge (played only once)
G|-----------------------------------------------------------------|
D|-----------------------------------------------------------------|
A|-----------------------------------------------------------------|
E|--99999999-88888888-6-6------------------------------------------|
Bridge
G|-----------------------------------------------------------------|
D|-----------------------------------------------------------------|
A|---5-5-55-3-3-3-333----------------------------------------------|
E|---------------------------4-4-44-6-6-6-666----------------------|

Thatís all. Work out how many times to play each and structure yourself. The bass is 
down a lot in this song but Iím pretty sure itís there, some parts might not have bass in 
decide that for yourself.


| /  slide up
| \  slide down
| h  hammer-on
| p  pull-off
| ~  vibrato
| +  harmonic
| x  Mute note
======================================================================