Kisschasy - Factory Chords & Tabs

 

Factory Chords & Tabs

Kisschasy Chords & Tabs

Version: 1 Type: Bass Tab

Factory Bass Tab

   
-----------------------------------------------------------------------------
			     Factory - Kisschasy
-----------------------------------------------------------------------------

Tabbed By: Jordan Duffy
e-mail: jordanswe@hotmail.com
[ Tab from: https://www.guitartabs.cc/tabs/k/kisschasy/factory_btab.html ]
Tuning: standard
Verse
G|------------------------------------------------------|
D|------------------------------------------------------|
A|--2-22ó2-22-------------------------------------------|
E|------------------4-44-44-0-00-00---------------------|
Chorus
G|------------------------------------------------------|
D|------------------------------------------------------|
A|---------------------------------------2-2-2-22-------|
E|--2-2-2-22-4-4-4-44-0-0-0-00--------------------------|
Chorus (before the verse starts)
G|------------------------------------------------------|
D|------------------------------------------------------|
A|------------------------------------------------------|
E|--2-2-2-22-4-4-4-44-0-0-0-00-0-0-0-00-----------------|
Bridge (quiet part, just hold the g sharp until it fades away)
G|------------------------------------------------------|
D|------------------------------------------------------|
A|------------------------------------------------------|
E|---4--------------------------------------------------|
Bridge (Heavier part)
G|------------------------------------------------------|
D|------------------------------------------------------|
A|------------------------------------------------------|
E|---4-4--0-0--2-2--2-2---------------------------------|
Outro (hold the g sharp)
G|------------------------------------------------------|
D|------------------------------------------------------|
A|------------------------------------------------------|
E|---4--------------------------------------------------|

Thatís all of it, some parts Iím not too sure about, but Iím pretty sure theyíre 
Work out structure and how many times to play each yourself.

| /  slide up
| \  slide down
| h  hammer-on
| p  pull-off
| ~  vibrato
| +  harmonic
| x  Mute note
=======================================================================