Kira And The Kindred Spirits - Save Me Chords & Tabs

 

Save Me Chords & Tabs

Kira And The Kindred Spirits Chords & Tabs

Version: 2 Type: Tab

Save Me Tab

   
Intro
e|-----------------------------------------------------------------------------------|
b|-----------------------------------------------------------------------------------|
g|-----------------------------------------------------------------------------------|
d|-----2----2----2----2----2----2----2----2----2----2----2----2----2----2----2----2--|
a|-------------------------------------------0----0----0----0------------------------|
e|--0----0----0----0----3----3----3----3-----------------------3----3----3----3------|

e|--------------------------------------------------------------------------0--------|
b|-----------------------------------------------------------------------------0-----|
g|-----------------------------------------------------------------------------------|
d|-----2----2----2----2----2----2----2----2----2----2----2----2----2----2------------|
a|-------------------------------------------0----0----0----0------------------------|
e|--0----0----0----0----3----3----3----3-----------------------3----3----3-----------|


Vers 
e|-----------------------------------------------------------------------------------|
b|-----------------------------------------------------------------------------------|
g|-----------------------------------------------------------------------------------|
d|-----2----2----2----2----2----2----2----2----2----2----2----2----2----2----2----2--|
a|-------------------------------------------0----0----0----0------------------------|
e|--0----0----0----0----3----3----3----3-----------------------3----3----3----3------| x8

Save me, save me 
From this loneliness and fear 
Save me, save me 
Someone get me out of here 
Save me, save me 
Make my worries disappear 

And in the nearest corner 
With a bag in his hand 
Stood this profoundly 
Relaxed looking man 
He said 

Watch me, watch me 
I'm not going anywhere

e|-----------------------------------------------------3--5--6--5--3--0--0-----------|
b|-----------------------------------------------------------------------------------|
g|-----------------------------------------------------------------------------------|
d|-----2----2----2----2----2----2----2----2----2----2----2----2----2----2----2----2--|
a|-------------------------------------------0----0----0----0------------------------|
e|--0----0----0----0----3----3----3----3-----------------------3----3----3----3------|
[ Tab from: https://www.guitartabs.cc/tabs/k/kira_and_the_kindred_spirits/save_me_tab_ver_2.html ]
e|-----------------------------------------------------------------------------------|
b|-----------------------------------------------------------------------------------|
g|-----------------------------------------------------------------------------------|
d|-----2----2----2----2----2----2----2----2----2----2----2----2----2----2----2----2--|
a|-------------------------------------------0----0----0----0------------------------|
e|--0----0----0----0----3----3----3----3-----------------------3----3----3----3------| x2

I've got just what you need babe 
A remedy, 
That will make all your 
troubles disappear


Bridge
e|-----------------------------3--5--6--5--3--0--0--|
b|--------------------------------------------------|
g|--------------------------------------------------|
d|-----2----2----2----2-----2----2----2----2--------|
a|-----------------------3----3---------------------|
e|--0----0----3----3---------------3----3-----------| x2

He says ...
Fear me not dear 
I'll get you out of here 


e|-----------------------------3--5--6-7-----------|
b|--------------------------------------------------|
g|--------------------------------------------------|
d|-----2----2----2----2-----2----2----2----2--------|
a|-----------------------3----3---------------------|
e|--0----0----3----3---------------3----3-----------| 

I'll take on all your pains 
and fears

Vers 
e|-----------------------------------------------------------------------------------|
b|-----------------------------------------------------------------------------------|
g|-----------------------------------------------------------------------------------|
d|-----2----2----2----2----2----2----2----2----2----2----2----2----2----2----2----2--|
a|-------------------------------------------0----0----0----0------------------------|
e|--0----0----0----0----3----3----3----3-----------------------3----3----3----3------|

e|-----------------------------------------------------3--5--6--5--3--0--0-----------|
b|-----------------------------------------------------------------------------------|
g|-----------------------------------------------------------------------------------|
d|-----2----2----2----2----2----2----2----2----2----2----2----2----2----2----2----2--|
a|-------------------------------------------0----0----0----0------------------------|
e|--0----0----0----0----3----3----3----3-----------------------3----3----3----3------|

Trust me, trust me 
There's only one way out of here 
Forget your past 
And your future girl 
Its only in this moment 
You will find a different world 

She looks at him and laughs 
She says 
Where are you from? 
I've got all this responsibility 
You know its killing me


Bridge...


Omkv:

| Em | G | A | (C?) | Repeat as necessary 

I'll love you, I'll love you 
And the road will 
see us through 
We can leave tonight girl 
And then you'll have nothing 
left to lose

She finally lightens up 
and says 
Fuck this life for a laugh 
Looks like I've found myself 
A man and a half 
Now they've gone.. 
Dancing, dancing.. 
Oh there dancing out of here.. 
Ohh..there dancing, outta here..

____________________________________________________________________________

It's maybe a bit confusing, and just a "rough" tab, but some of it is correct. I'm pretty sure ;)
Enjoy.