Kings Of Leon - Slow Night, So Long Chords & Tabs

 

Slow Night, So Long Chords & Tabs

Kings Of Leon Chords & Tabs

Version: 4 Type: Bass Tab

Slow Night, So Long Bass Tab

Title  : Slow night so long 
Artists: Kings of Leon 
Bassist: Hollowill. 
Standard tuning
Tabbed by Mike.F-lea
E-mail:mfanning@Waterford.ie

Iím 99.9% sure that this tab is fully correct but it
was my first so go easy on me. All corrections/comments
are welcome. It should keep u entertained 4 a good while
(at least until the chili peppers new album comes out anyway).
Please rate it.

Verse 1 (0:15-1:20)
G-|-----------------------|------------------------| 
D-|--14--14--14-----------|--14--14--14------------|
A-|-------------12--------|-------------12---------|
E |-----------------------|------------------------|

G-|-11/14-14-14-14-14-14-14-14|--------------------| 
D-|---------------------------|-15-13--------------|
A-|---------------------------|--------16-15-------|
E |---------------------------|--------------------|

G-|-----------------------|------------------------| 
D-|--11h12-12-12-12-------|-----11-11-11-11--------|
A-|-----------------9-----|-----------------9------|
E |-----------------------|------------------------|
   
G-|-----------------------|------------------------| 
D-|--11h12-12-12-12-------|-----11-11-11-11--------|
A-|-----------------9-----|-----------------9------|
E |-----------------------|------------------------|Repeat

Chorus 1 (1:20-1:45)

G-|-----------------------|------------------------| 
D-|-----------------------|----------3-----3------3|
A-|-----------------------|------5-5---5-5----5-5--|
E |5-5-5-5-5-5-5-5-5-5-5-5|5-5-5-------------------|

G-|-----------------------|------------------------| 
D-|-----3------3------3---|-----3-----3------------|
A-|-5-5----5-5----5-5-----|-5-5---5-5--------------|
E |-----------------------|------------------------|

G-|-----------------------|------------------------| 
D-|-----------------------|----------3-----3------3|
A-|-----------------------|------5-5---5-5----5-5--|
E |5-5-5-5-5-5-5-5-5-5-5-5|5-5-5-------------------|

G-|-----------------------|------------------------| 
D-|-----3------3------3---|-----3-----3------------|
A-|-5-5----5-5----5-5-----|-5-5---5-5--------------|
E |-----------------------|------------------------|
   
  




Verse 2(1:46-2:12)  
[ Tab from: https://www.guitartabs.cc/tabs/k/kings_of_leon/slow_night_so_long_btab_ver_4.html ]
G-|-----------------------|------------------------| 
D-|--14--14--14-----------|--14--14--14------------|
A-|-------------12--------|-------------12---------|
E |-----------------------|------------------------|

G-|-11/14-14-14-14-14-14-14-14|--------------------| 
D-|---------------------------|-15-13--------------|
A-|---------------------------|--------16-15-------|
E |---------------------------|--------------------|

G-|-----------------------|------------------------| 
D-|--11h12-12-12-12-------|-----11-11-11-11--------|
A-|-----------------9-----|-----------------9------|
E |-----------------------|------------------------|
   
G-|-----------------------|------------------------| 
D-|--11h12-12-12-12-------|-----11-11-11-11--------|
A-|-----------------9-----|-----------------9------|
E |-----------------------|------------------------|Repeat

 
Chorus 2

G-|-----------------------|------------------------| 
D-|-----------------------|----------3-----3------3|
A-|-----------------------|------5-5---5-5----5-5--|
E |5-5-5-5-5-5-5-5-5-5-5-5|5-5-5-------------------|

G-|-----------------------|------------------------| 
D-|-----3------3------3---|-----3-----3------------|
A-|-5-5----5-5----5-5-----|-5-5---5-5--------------|
E |-----------------------|------------------------|

G-|-----------------------|------------------------| 
D-|-----------------------|----------3-----------3-|
A-|-----------------------|------5-5---5-5-3--5-5--|
E |5-5-5-5-5-5-5-5-5-5-5-5|5-5-5-------------------|

G-|-----------------------|------------------------| 
D-|-------------3---------|-----3-----3------------|
A-|-5-5-3---5-5----5-5-3--|-5-5---5-5------5-------| 
E |-----------------------|------------------------|
Let that last 5 ring out softly till the outro begins.
          
Outro (3:00-3:50)  

G-|------------------------|
D-|---------5-5-5----5-5-5-|
A-|-----5-5----------------|
E |-5-5--------------------|Just repeat this.
And the last time u play this.
G-|------------------------|
D-|---------5--------------|
A-|-----5-5----------------|
E |-5-5--------------------|

And thatís it. Itís a good song and its easy 2
play so good luck with it. And please donít forget to rate it.