Kings Of Leon - Four Kicks Chords & Tabs

 

Four Kicks Chords & Tabs

Kings Of Leon Chords & Tabs

Version: 1 Type: Chords

Four Kicks Chords

   
Kings of Leon
Four Kicks
Aha Shake Heartbreak

Tobyo

Another great album from Kings of Leon! This is my favourite song of their new album, great tune and video.

I think the chorus and verse are linked by the E    G    A    G  E     G    A    G  D being played twice.

Standard Tuning: eBGDAE

Chords:

E            G            A            D            F            Bb
0            3            0            2            1            1
0            0            3            3            1            3
1            0            3            2            2            3
2            0            3            0            3            3
2            2            0            X            3            1
0            3            X            X            1            X






Verse 1:                                     E  G  A  G  E   G  A  G  D
              Huffman don't take no nonsense,
                                   E  G  A  G  E   G  A  G E
             He's here to rectify,
                                             E  G  A  G  E   G  A  G  D
             He's got his black belt buckle,
                                                E  G  A  G  E   G  A  G
             And the red man's fire in his eye.
                

Chorus:      
             F                
               You with your switchblade posse,
             Bb
               I'll get my guns from the sou-uth,
             F
               We'll take to the yard like a cockfight,
             Bb
               Four kicks whose strutting now-ow.



[ Tab from: https://www.guitartabs.cc/tabs/k/kings_of_leon/four_kicks_crd.html ]
Verse 2:                                E  G  A  G  E   G  A  G  D
             This party's over-rated,
                                                E  G  A  G  E   G  A  G  E
             But there ain't shit else to do,
                                                    E  G  A  G  E  G  A  G  E
             She's a lovin' on the boy from the city,
                                                 E    G    A    G  E     
             I'll be lovin' him under my shoe.


Chorus:      F                
               You with your switchblade posse,
             Bb
               I'll get my guns from the sou-uth,
             F
               We'll take to the yard like a cockfight,
             Bb
               Four kicks whose strutting now-ow.




SOLO:       

     e|-------------------------------------------------------------|
     B|------------------3b--8-10-8-10-8-10-8-10-8-10b-8-10---------|
     G|-0-2b-0-2b-0-2b-0--------------------------------------------|
     D|-------------------------------------------------------------|
     A|-------------------------------------------------------------|
     E|-------------------------------------------------------------|

     e|-------------------------15-1212----------------------------|
     B|-15-12-15-12-15-12-15-12------1515-12----12-----------------|
     G|---------------------------------------14----14-12-14b-12-14-|
     D|-------------------------------------------------------------|
     A|-------------------------------------------------------------|
     E|-------------------------------------------------------------|



Outro:       F                
               You with your switchblade posse,
             Bb
               I'll get my guns from the sou-uth,
             F
               We'll take to the yard like a cockfight,
             Bb
               Four kicks whose strutting now-ow.

Dont Forget to rate it!