Kenny Chesney - You Had Me From Hello Chords & Tabs

 

You Had Me From Hello Chords & Tabs

Kenny Chesney Chords & Tabs

Version: 1 Type: Bass Tab

You Had Me From Hello Bass Tab

You Had Me From Hello

This is one of those great Kenny Chesney songs from before the coconut wanged him on the 
and made it so that all he could write was island songs

----------------------------------------------------------------------------
		     You Had Me From Hello  Kenny Chesney
----------------------------------------------------------------------------

Tabbed By :
e-mail: Drenwick@alltel.net

Tuning:  EADG

Broken it down to bars


1    G|---------------------------|
     D|-----------0---------------| Open D for a four count.
     A|---------------------------|
     E|---------------------------|

2    G|---------------------------|
     D|-----------0---------------| Open D for a four count.
     A|---------------------------|
     E|---------------------------|
[ Tab from: https://www.guitartabs.cc/tabs/k/kenny_chesney/you_had_me_from_hello_btab.html ]
3    G|----0-Sustain four count-----| You play the G on the E string
     D|---0-------------------------| playing the open D at same time.
     A|-----------------------------| After the quarter sustain the open
     E|3-Hold while playing above-| G into the first beat of next bar.

4    G|--0------------------------|
     D|---------------------------| Play the G's for a half finish with a
     A|------------0--------------| open A for a quater
     E|--3------------------------|

5    G|---------------------------|
     D|---------------------------|
     A|---------------------------| Open E for a four count.
     E|------------0--------------|

6    G|---------------------------|
     D|---------------------------|
     A|---------------------------| Open E for a four count.
     E|------------0--------------|

7    G|---------------------------|
     D|---------------------------|
     A|---------------------------| Open G for a four count.
     E|------------3--------------|


This is played with the intro guitar.