Kaizers Orchestra - 170 Chords & Tabs

 

170 Chords & Tabs

Kaizers Orchestra Chords & Tabs

Version: 2 Type: Tab

170 Tab

"170" Kaizers Orchestra, Ompa til du DÝr

This is the intro of "170". I'm not sure if it's quite right, but it sound pretty good
to me... To get a clear image of how this song i played, you should liten to it carefully.

(/=slide)
(^=tapping)
[ Tab from: https://www.guitartabs.cc/tabs/k/kaizers_orchestra/170_tab_ver_2.html ]
e------------------------------------------------- r
B------------------------------------------------- e
G-------2--2-4-5-4-2------------------------------ p
D-----2-------------5-2--2------------------------ e
A--3-5-------------------------2--5-3--2-2^3^2---- a
E---------------------------3-5---------------5--5 t

e--------------------------------------------
B--------------------------------------------
G--------------------------------------------
D--------7--7--7-7--7--7-5--5--5-5/7-7-7--7-7 and so on...
A--------7--7--7-7--7--7-5--5--5-5/7-7-7--7-7
E--0-3-5-5--5--5-5--5--5-3--3--3-3/5-5-5--5-5

This is it! Of course this is only the intro.

By the Mafia, Marchello.