Jurassic 5 - Future Sound Chords & Tabs

 

Future Sound Chords & Tabs

Jurassic 5 Chords & Tabs

Version: 1 Type: Chords

Future Sound Chords

   
This is my first tab so itís kinda simple, Mint song though.

Jurassic 5 Ė Future sound
==============================================

There are two parts that repeat throughout the track


Part 1
 
     Fm                        X3   Db               C            X1
E |------------------------------|----------------------------------|
B |--9------9--9-----9--9----9---|--14--14-----14----13--13-----13--|
G |--10-----10-10----10-10---10--|--13--13-----13----12--12-----12--|
D |--10-----10-10----10-10---10--|--15--15-----15----14--14-----14--|
A |--8------8--8-----8--8----8---|----------------------------------|
E |------------------------------|----------------------------------|



[ Tab from: https://www.guitartabs.cc/tabs/j/jurassic_5/future_sound_crd.html ]
Part 2
Fm                              Ab
E |------------------------------|------------------------------|
B |--9------9--9-----9--9----9---|--13-----13-13----13-13---13--|
G |--10-----10-10----10-10---10--|--13-----13-13----13-13---13--|
D |--10-----10-10----10-10---10--|--13-----13-13----13-13---13--|
A |--8------8--8-----8--8----8---|--11-----11-11----11-11---11--|
E |------------------------------|------------------------------|

   
    Bb                              Db               C
E |------------------------------|----------------------------------|
B |--15-----15-15----15-15---15--|--14--14-----14----13--13-----13--|
G |--15-----15-15----15-15---15--|--13--13-----13----12--12-----12--|
D |--15-----15-15----15-15---15--|--15--15-----15----14--14-----14--|
A |--13-----13-13----13-13---13--|----------------------------------|
E |------------------------------|----------------------------------|



The rhythmís probably not right, so listen to the track for that.



Cooky.