Joy Division - Novelty Chords & Tabs

 

Novelty Chords & Tabs

Joy Division Chords & Tabs

Version: 1 Type: Chords

Novelty Chords

   
E|---------------------------|----------------------------|
B|---------------------------|----------------------------|
G|----5----5----5----7-------|---5----5----5--7b7-5-------|
D|--7-7--7-7--7-7--9-9-------|--7-7--7-7--7-7------7r-----
A|-0---------5----7----------|-0---------5----------------|
E|------7--------------------|------7---------------------|

E|-------------------------|-------------------------|
B|-------------0----0------|-22-22-2-3p2--22---------|
G|----------0----0---0-----|-22-22-2-2--2-22---------|
D|-(7\4)--4----2-----------|-22-22-2-2--2-22---------|
A|-------------------------|-00-00-0----0-00---------|
E|-------------------------|-------------------------|


G                    F# 
When people listen to you 
          G    F#          Em
don't you know it means a lot,

Em                           F#
'Cos you've got to work so hard
      G    F#            Em      
for everything you've got.

Can't rest on your laurels now,
Not when you've got none.
You'll find yourself in a gutter,
Right back where you came from.


G      F#     G F# Em 
Em     F#     G F# Em

Someone told me being in the know 
is the main thing.

We all need the security 
that belonging brings.

Can't stand on your own in these times,
Against all the odds,

You all just fall behind 
like all the other sods.
[ Tab from: https://www.guitartabs.cc/tabs/j/joy_division/novelty_crd.html ]
G        F#     G F# Em 
Em       F#     G F# Em

G        F#     G F# Em 
G        F#     Em 

G                           F#                Em
You slap our backs and pretend you knew about,

All the things that we were gonna do.
G                          F#
What ya gonna do, what ya gonna do,
          Em
When it's over?

G  F# - Em

 G                      F#
You're on your own now Don't 
    G    F#        Em
you think that's a shame?
Em                      F#         G
But you're the only one responsible
   F#      Em  
to take the blame.
                        
So what ya gonna do when the novelty has gone?
Yeah, what ya gonna do when the novelty has gone?

G      F#     G F# Em 
Em     F#     G F# Em

G      F#     G F# Em 
G      F#     Em 

G                                    
You slap our backs,
         F#               Em
And pretend you knew about,                       
All the things we were gonna do.

What ya gonna do, what ya gonna do
When its over?