Jonas Brothers - Paranoid Chords & Tabs

 

Paranoid Chords & Tabs

Jonas Brothers Chords & Tabs

Version: 1 Type: Tab

Paranoid Tab

Paranoid Ė Jonas Brothers

I basically studied how Kevin plays it from a live video.
Iím pretty sure itís accurate.
If there are any mistakes, let me know :)
For the intro/verses, you can play the power chords if you want.
But, Kevin doesn't.
The riff in the Bridge is a bit tricky - practice it, a LOT.

Intro:
e|-----------------------------------------|
B|-----------------------------------------|
G|-----------------------------------------|
D|-----------------------------------------|
A|--8888-6666----------8888-6666-----------|
E|------------66666666-----------66666666--|

Verse:
e|-----------------------------------------|
B|-----------------------------------------|
G|-----------------------------------------|
D|-----------------------------------------|   x4
A|--8888-6666----------8888-6666-----------|
E|------------66666666-----------66666666--|

Pre-Chorus:
e|--------------|
B|--------------|
G|--------------|
D|--6~-8~-6~-8~-|
A|--6~-8~-6~-8~-|
E|--4~-6~-4~-6~-|

Chorus
e|-------------------------------------------------|
B|-------------------------------------------------|
G|--10101010-8888----------10101010-8888-----------|
D|--10101010-8888-88888888-10101010-8888-88888888--|   x2
A|--8-8-8-8--6666-88888888-8-8-8-8--6666-88888888--|
E|----------------66666666---------------66666666--|
[ Tab from: https://www.guitartabs.cc/tabs/j/jonas_brothers/paranoid_tab.html ]
Post-Chorus:
e|-----------------------------------------|
B|-----------------------------------------|
G|-----------------------------------------|
D|-----------------------------------------|
A|--8888-6666----------8888-6666-----------|
E|------------66666666-----------66666666--|
      
Verse:
e|-----------------------------------------|
B|-----------------------------------------|
G|-----------------------------------------|
D|-----------------------------------------|   x4
A|--8888-6666----------8888-6666-----------|
E|------------66666666-----------66666666--|

Pre-Chorus:
e|--------------|
B|--------------|
G|--------------|
D|--6~-8~-6~-8~-|
A|--6~-8~-6~-8~-|
E|--4~-6~-4~-6~-|

Chorus:
e|-------------------------------------------------|
B|-------------------------------------------------|
G|--10101010-8888----------10101010-8888-----------|
D|--10101010-8888-88888888-10101010-8888-88888888--|   x4
A|--8-8-8-8--6666-88888888-8-8-8-8--6666-88888888--|
E|----------------66666666---------------66666666--|

Bridge:
e|--------------------------------|
B|--------------------------------|
G|--------------------------------|
D|--6~-8~---------------6---------|	x2
A|--6~-8~-8-8-6h8-6h8-8---8-6h8-8-|
E|--4~-6~-------------------------|

e|-------------------------------------------| 
B|-------------------------------------------|
G|-------------------------------------------|
D|--6~-8~-6~-8~-8~-----------------6---------|
A|--6~-8~-6~-8~-8~---8-8-6h8-6h8-8---8-6h8-8-|
E|--4~-6~-4~-6~-6~---------------------------|

Chorus:
e|-------------------------------------------------|
B|-------------------------------------------------|
G|--10101010-8888----------10101010-8888-----------|
D|--10101010-8888-88888888-10101010-8888-88888888--|   x4
A|--8-8-8-8--6666-88888888-8-8-8-8--6666-88888888--|
E|----------------66666666---------------66666666--|

Outro:
e|----------------------------------------|
B|----------------------------------------|
G|--10101010-8888----------10101010-8888--|
D|--10101010-8888-88888888-10101010-8888--|  
A|--8-8-8-8--6666-88888888-8-8-8-8--6666--|
E|----------------66666666----------------|