Join The Club - Lunes Chords & Tabs

 

Lunes Chords & Tabs

Join The Club Chords & Tabs

Version: 4 Type: Tab

Lunes Tab

   
Join the Club - Lunes
Album: Nobela
Tuning: Drop D (D A D G B E)
Tabbed By Mark Melano
agumonxvmon@yahoo.com

intro:
e--------------------------------------------------|
B-3\1--3/5--3\1---3\1--3/5--3\1--------------------|
G--------------------------------------------------|
D--------------------------------------------------|
A--------------------------------------------------|
D--------------------------------------------------|

e-6\4--6/8--6\4---6\4--6/8--6\4--------------------|
B--------------------------------------------------|
G--------------------------------------------------|
D--------------------------------------------------|
A--------------------------------------------------|
D--------------------------------------------------|


e------------1h3-1----|    e------------------------|
B-1-0---0-1--------1--|    B------------------------|
G-----3---------------| 2x G---3-x16--5--1-x16--6-6-|
D---------------------|    D--------------------6-6-|
A---------------------|    A--------------------4-4-|
D---------------------|    D------------------------|

verse:

e--------------------------------------------------|
B--------------------------------------------------|
G--8-----------------------------------------------|
D--8---6--3--6--3----------------------------------|
A--6---6--3--6--3----------------------------------|
D------6--3--6--3----------------------------------|

Unang araw kaybilis ng galaw
May kalaliman ang pagtutol sa pag-ayaw
Kalimutan ka kahit pa may iba
At sa muli magbabalik sa 'kin ang lahat

pre-chorus:

e--------------------------------------------------|
B--------------------------------------------------|
G--------------------------------------------------|
D---3--1--3--1--5--6-------------------------------|
A---3--1--3--1--5--6-------------------------------|
D---3--1--3--1--3--4-------------------------------|

Maari bang magtanong
Dahil labis na rin akong lumalayo

Chorus:

e-----------------------|     e---------------------|
B-----------------------|     B---------------------|
G-----------6---5-------|     G--6------------------|
D---6---3---6---5---3---| 2x  D--6---1---3----------|
A---6---3---4---3---3---|     A--4---1---3----------|
D---6---3-----------3---|     D------1---3----------|

Matatanggap ba ako, kung magbabalik sa iyo
Sakit ng sinapit ay please wag nang magtampo
Wala man akong nagawa nung unang ikay nawala
Wala sa hinagap na akoy mabibigo
Wala sa hinagap na akoy mabibigo

verse:
[ Tab from: https://www.guitartabs.cc/tabs/j/join_the_club/lunes_tab_ver_4.html ]
e--------------------------------------------------|
B--------------------------------------------------|
G--8-----------------------------------------------|
D--8---6--3--6--3----------------------------------|
A--6---6--3--6--3----------------------------------|
D------6--3--6--3----------------------------------|

Unang araw naninibago pat
Sa pakiwari ay may katiyakan na
At sa isang iglap mayrong magaganap
At sa muli magbabalik sakin ang lahat


pre-chorus:

e--------------------------------------------------|
B--------------------------------------------------|
G--------------------------------------------------|
D---3--1--3--1--5--6-------------------------------|
A---3--1--3--1--5--6-------------------------------|
D---3--1--3--1--3--4-------------------------------|

Maari bang magtanong
Dahil labis na rin akong lumalayo

Chorus:

e-----------------------|     e--------------------|
B-----------------------|     B--------------------|
G-----------6---5-------|     G--6-----------------|
D---6---3---6---5---3---| 2x  D--6---1-------------|
A---6---3---4---3---3---|     A--4---1-------------|
D---6---3-----------3---|     D------1-------------|

Matatanggap ba ako, kung magbabalik sa iyo
Sakit ng sinapit ay please wag nang magtampo
Wala man akong nagawa nung unang ikay nawala
Wala sa hinagap na akoy mabibigo
Wala sa hinagap na akoy mabibigo


Bridge:

e----------------|
B----------------|
G----------6-----|
D---3------6-----| x2
A---3------4-----|
D---3------------|

Wag kang magtakang pinilit kong magtanong
Bastat sapat na ang nalaman mo na akoy narito
Wag kang magtaka Wag kang magtaka
Wag kang magtaka Wag kang magtaka..

Solo

e------------------------------------------------------|
B------------------------------------------------------|
G------------------------------8-6-5h6p5-----5---------|
D---66-8-1010--66-8-1010---66------------8-6---6-------|
A------------------------------------------------------|
D------------------------------------------------------|


e------------------------------------------------------|
B------------------------------------------------------|
G------------------------------8-6-5h6p5-----5-6-5-----|
D---66-8-1010--66-8-1010---66------------8-6-----------|
A------------------------------------------------------|
D------------------------------------------------------|

pre-chorus:

e--------------------------------------------------|
B--------------------------------------------------|
G--------------------------------------------------|
D---3--1--3--1--5--6-------------------------------|
A---3--1--3--1--5--6-------------------------------|
D---3--1--3--1--3--4-------------------------------|

Maari bang magtanong
Dahil labis na rin akong lumalayo

Repeat Chorus

Inihahandog ko tong tab na to sa lahat ng mga Rakista na taga Cainta!