Johnny Cash - I Walk The Line Chords & Tabs

 

I Walk The Line Chords & Tabs

Johnny Cash Chords & Tabs

Version: 3 Type: Tab

I Walk The Line Tab

   
Johnny Cash  I walk the line

Whole song (Intro and Verse)	from the DVD (Live at Montreux 1994)

Bass TAB by Andreas Bauer, Germany (It sounds like the original)

Duration Legend : Q - quarter; E - 8th; 

 Intro
  Q=115
 4/4
  Gtr I
  E E E   Q  Q  E E E E   Q  Q  E E E E   Q  Q  E E E E
|-------|---------------|---------------|----------------|
|-------|---------------|---------------|----------------|
|-------|---------------|---------------|----------------|
|-------|---------------|-0-----0-0-----|----------------|
|-------|-0-----0-0-2-4-|----0------4-2-|-0-----0-0------|
|-0-2-4-|----0----------|---------------|----0------4-2--|


 Intro
  Q  Q  E E E E   Q  Q  E E E E   Q  Q  Q  Q    Q  Q  Q  Q    Q  Q
|---------------|---------------|-------------|-------------|--------*|
|---------------|---------------|-------------|-------------|--------*|
|---------------|---------------|-------------|-------------|--------*|
|---------------|----1----------|-------------|-------------|--------*|
|----2--2-------|-2-----2-0-----|----2-----2--|----2-----2--|----2---*|
|-0-------0-2-0-|-----------4-2-|-0-----0-----|-0-----0-----|-0------*|


 Verse
  Q  Q  Q  E E   Q  Q  Q  Q    Q  Q  Q  E E   Q  Q  Q  Q    Q  Q  Q  Q
|--------------|-------------|--------------|-------------|-------------|
|--------------|-------------|--------------|-------------|-------------|
|--------------|-------------|--------------|-------------|-------------|
|----1-------1-|-------------|----1-------1-|-------------|-------------|
|-2-----2--2---|----2-----2--|-2-----2--2---|----2-----2--|-0-----0-----|
|--------------|-0-----0-----|--------------|-0-----0-----|----0-----0--|


  Q  Q  Q  Q    Q  Q  Q  E E   Q  Q  E E E E   Q  Q  Q  Q
|-------------|--------------|---------------|-------------|
|-------------|--------------|---------------|-------------|
|-------------|--------------|---------------|-------------|
|-------------|----1-------1-|---------------|-------------|
|----2-----2--|-2-----2--2---|----2----------|-0-----0-----|
|-0-----0-----|--------------|-0-----0-0-2-4-|----0-----0--|


  Q  Q  Q  Q    Q  E E   Q  Q  E E E E   Q  Q  E E E E
|-------------|--------|---------------|----------------|
|-------------|--------|---------------|----------------|
|-------------|--------|---------------|----------------|
|-------------|--------|---------------|----------------|
|-0-----0-----|-0------|----2----------|-0-----0-0------|
|----0-----0--|----4-2-|-0-----0-0-2-4-|----0------4-2--|


 

[ Tab from: https://www.guitartabs.cc/tabs/j/johnny_cash/i_walk_the_line_tab_ver_3.html ]
  Q  Q  E E E E   Q  Q  E E E E   Q  Q  Q  E E   Q  Q  Q  E E   Q  Q  Q  E E
|---------------|---------------|--------------|--------------|--------------|
|---------------|---------------|--------------|--------------|--------------|
|---------------|---------------|--------------|--------------|--------------|
|---------------|---------------|-0-----0------|--------------|--------------|
|----2----------|-0-----0-0-2-4-|----0-----2-4-|-0-----0------|----2-----2-1-|
|-0-----0-0-2-4-|----0----------|--------------|----0-----4-2-|-0-----0------|


  Q  Q  E E E E   Q  Q  Q  Q    Q  Q  Q  Q
|---------------|-------------|-------------|
|---------------|-------------|-------------|
|---------------|-------------|-------------|
|---------------|-0-----0-----|-0-----0-----|
|-0-----0-0-2-4-|----0-----0--|----0-----0--|
|----0----------|-------------|-------------|


  Q  E E   Q  Q  Q  E E   Q  Q  Q  E E
|--------|--------------|---------------|
|--------|--------------|---------------|
|--------|--------------|---------------|
|-0------|--------------|-0-----0--0----|
|----4-2-|-0-----0--2-4-|----0-------2--|
|--------|----0---------|---------------|


  Q  Q  Q  E E   Q  Q  Q  E E   Q  Q  Q  E E   Q  Q  E E E E   Q  Q  Q  Q
|--------------|--------------|--------------|---------------|-------------|
|--------------|--------------|--------------|---------------|-------------|
|--------------|--------------|--------------|---------------|-------------|
|--------------|-0-----0------|----2-----2-1-|-0-----0-0-----|-------------|
|----2-----2-4-|----0-----4-2-|-0-----0------|----0------2-4-|-0-----0-----|
|-3-----3------|--------------|--------------|---------------|----0-----0--|


  Q  Q  Q  Q    Q  E E   Q  Q  Q  E E   Q  Q  Q  E E   Q  Q  Q  E E
|-------------|--------|--------------|--------------|---------------|
|-------------|--------|--------------|--------------|---------------|
|-------------|--------|--------------|--------------|---------------|
|-------------|--------|--------------|--------------|---------------|
|-0-----0-----|-0------|----2-----2-1-|-0-----0------|----2-----4-2--|
|----0-----0--|----4-2-|-0-----0------|----0-----4-2-|-0-----0-------|


  Q  Q  Q  Q    Q  Q  Q  E E   Q  Q  Q  E E   Q  Q  Q  Q
|-------------|--------------|--------------|-------------|
|-------------|--------------|--------------|-------------|
|-------------|--------------|--------------|-------------|
|-------------|-0-----0------|--------------|-------------|
|-0-----0-----|----0-----4-2-|-0-----0------|----2-----2--|
|----0-----0--|--------------|----0-----4-2-|-0-----0-----|


                               Outro
  Q  Q  Q  E E   Q  Q  Q  E E   Q  Q  Q  Q    Q  Q  Q  Q    Q  Q
|--------------|--------------|-------------|-------------|--------*|
|--------------|--------------|-------------|-------------|--------*|
|--------------|--------------|-------------|-------------|--------*|
|--------------|--------------|-------------|-------------|--------*|
|-0-----0------|----2-----4-2-|-0-----0-----|-0-----0-----|-0------*|
|----0-----4-2-|-0-----0------|----0-----0--|----0-----0--|----0---*|